Puddle Of Mudd - Drift And Die Chords & Tabs

 

Drift And Die Chords & Tabs

Puddle Of Mudd Chords & Tabs

Version: 7 Type: Tab 0 ratings
1 star 2 stars 3 stars 4 stars 5 stars
comments

Drift And Die Tab

Drift and Die 
Puddle of Mudd
Come Clean

Down  step  
        
Verse                *       *  *
Eb--1--0--1--0----0--1-------0--1---------------------------
Bb--3--3--3--3----3--3-------3--3---------------------------
Gb--2--2--2--2----0--0-------0--0---------------------------
Db----------------2--2-------0--0---------------------------
Ab----------------3--3-------2--2---------------------------
Eb---------------------------3--3---------------------------
*= Ad lib chord (not necassary to play)
Strum each Chord a few times

[ Tab from: http://www.guitartabs.cc/tabs/p/puddle_of_mudd/drift_and_die_tab_ver_7.html ]
Pre-Chorus and Chorus
Eb------------------------------------------------
Bb------------------------------------------------
Gb---7--5-(5)-------------------------------------
Db---7--5-(5)--3-3--3/5-5-------------------------
Ab---5--3--2---3-3--3/5-5-------------------------
Eb-------------1-1--1/3-3-------------------------

Strum each chord X amount of times.  Listen to get the pattern


Solo Thing at the end  (distorted and with wah)

Eb-----------------------------------------------
Bb-----------------------------------------------
Gb---7--5--7-------------------------------------
Db---7--5--7-------------------------------------
Ab---5--3--5-------3-----3---5-5-5---------------
Eb-------------1-3-----3---3---------------------

Play this 4 times   on the last time bend Ab on the 5th a half step
Comments