Puddle Of Mudd - Drift And Die Chords & Tabs

 

Drift And Die Chords & Tabs

Puddle Of Mudd Chords & Tabs

Version: 5 Type: Tab 0 ratings
1 star 2 stars 3 stars 4 stars 5 stars
comments

Drift And Die Tab

Puddle of mud 
Drift and Die
[ Tab from: http://www.guitartabs.cc/tabs/p/puddle_of_mudd/drift_and_die_tab_ver_5.html ]
E---1-------0-------1-------0-------0-------0-------0------>
B---3-------3-------3-------3-------1-------0-------1------>
G---2-------2-------2-------2-------2-------2-------2------>
D---0-------0-------0-------0-------2-------2-------2------>
A-----------------------------------0-------0-------0------>
E---------------------------------------------------------->

           
E---0-------
B---0-------
G---2-------        (REAPEAT SEVERAL TIMES) 
D---2-------      
A---0-------        KEEP PLAYING AND FIGURE OUT BEAT
E-----------
Comments