Puddle Of Mudd - Drift And Die Chords & Tabs

 

Drift And Die Chords & Tabs

Puddle Of Mudd Chords & Tabs

Version: 2 Type: Tab

Drift And Die Tab

   
This song could be played so much easier this way.
Try this tuning
Db, Ab, Db, Gb, Bb, Db. 
Make sure you tune that high e down to d.

Intro/Verse
|-3--3-3-2--2-2-2-2--2-2-3--3-3-3-2--2-2-2-2---3-3----|
|-3--3-3-3--3-3-3-3--3-3-3--3-3-3-3--3-3-3-3---3-3----|
|-2--2-2-2--2-2-2-2--2-2-2--2-2-2-2--2-2-2-2---2-2----|
|-0--0-0-0--0-0-0-0--0-0-0--0-0-0-0--0-0-0-0---0-0----|
|-----------------------------------------------------|
|-----------------------------------------------------|
[ Tab from: http://www.guitartabs.cc/tabs/p/puddle_of_mudd/drift_and_die_tab_ver_2.html ]
|-3--3-3-3--3-3-3-3--3-3-3--3-3--3--3-3-3-3-----------|
|-3--3-3-3--3-3-3-3--3-3-3--3-3--3--3-3-3-3-----------|
|-0--0-0-0--0-0-0-0--0-0-0--0-0--0--0-0-0-0-----------|
|-2--2-2-0--0-0-0-0--0-0-2--2-2--0--0-0-0-0-----------|
|-3--3-3-2--2-2-2-2--2-2-3--3-3--2--2-2-2-2-----------|
|-----------------------------------------------------|

Chorus
|-----------------|
|-----------------|
|--7--5-----------|
|--7--5--5--3/5---|
|--5--3--5--3/5---|
|--------5--3/5---|


Bridge 
|---------------------------------|
|---------------------------------|
|-7--5--7-------------------------|
|-7--5--7-------------------------|
|-5--3--5--------3--------3-5--3--|
|----------0-3h5----0-3h5---------|

|---------------------------------|
|---------------------------------|
|-7--5--7--------5--------5-7--5--|
|-7--5--7--0-5h7----0-5h7---------|
|-5--3--5-------------------------|
|---------------------------------|


Hopefully this is helpful.