Puddle Of Mudd - Drift And Die Chords & Tabs

 

Drift And Die Chords & Tabs

Puddle Of Mudd Chords & Tabs

Version: 11 Type: Tab 0 ratings
1 star 2 stars 3 stars 4 stars 5 stars
comments

Drift And Die Tab

   
Tabbed by» Nick

Tuning»1/2 step down

This song is really easy and cool to play on acoustic. I dindt put the strumming pattern 
im lazy lol.

Intro/Verse
   Dm     x2      x2
e|-1---0--|--3-3--|---------------------------------------------------------|
B|-3---3--|--0-0--|---------------------------------------------------------|
G|-2---2--|--0-0--|---------------------------------------------------------|
D|-0---0--|--2-0--|---------------------------------------------------------|
A|-0---0--|--3-2--|---------------------------------------------------------|
E|-0---0--|--0-3--|---------------------------------------------------------|
[ Tab from: http://www.guitartabs.cc/tabs/p/puddle_of_mudd/drift_and_die_tab_ver_11.html ]
Chorus- First time acoustic, Second time electric with no muted strings.
e|--------------------------------------------------------------------------|
B|--------------------------------------------------------------------------|
G|-7x-5x-4x-----------------------------------------------------------------|
D|-7x-5x-4x--3x---5x--------------------------------------------------------|
A|-5x-3x-2x--3x---5x--------------------------------------------------------|
E|-----------1x---3x--------------------------------------------------------|

Solo w/ wah not too sure if this i right, but its how i play it.
e|--------------------------------------------------------------------------|
B|--------------------------------------------------------------------------|
G|--7---7-5-7---------5--------5--7-5---------------------------------------|
D|--7---7-5-7---5-5h7----5-5h7----------------------------------------------|
A|--5---5-3-5---------------------------------------------------------------|
E|--------------------------------------------------------------------------|
enjoy! :)
Comments