Puddle Of Mudd - Drift And Die Chords & Tabs

 

Drift And Die Chords & Tabs

Puddle Of Mudd Chords & Tabs

Version: 1 Type: Bass Tab 0 ratings
1 star 2 stars 3 stars 4 stars 5 stars
comments

Drift And Die Bass Tab

Puddle of Mudd
Drift and Die
Come Clean
Bass Tab


Verse 1 :

G------------------------------
D------------------------------
A------------------------------
E-----10/0---------------------

Chorus:
[ Tab from: http://www.guitartabs.cc/tabs/p/puddle_of_mudd/drift_and_die_btab.html ]
G-------------------------------
D-------------------------------
A----5---3--2-------------------
E---------------1-----3-3-3-3-3-


Verse 2 :

G---------------------------------------------------------
D---------------------------------------------------------
A--------5---------5--------5---3-----5---3----5-3-2------
E---3-3--------3-3------------------------------------1--3


Carry out the choros tabs through out the bridge.
Comments