Puddle Of Mudd - Control Chords & Tabs

 

Control Chords & Tabs

Puddle Of Mudd Chords & Tabs

Version: 8 Type: Tab 0 ratings
1 star 2 stars 3 stars 4 stars 5 stars
comments

Control Tab

   
#----------------------------------PLEASE NOTE---------------------------------#
#This file is the author's own work and represents their interpretation of the #
#song. You may only use this file for private study, scholarship, or research. #
#------------------------------------------------------------------------------#

Puddle Of Mudd
Control
Tabbed by Dave Costello (Cozuk2000@yahoo.com)
Tuning: ½ step down and drop D 
Low to High C# G# C# F# A# D#
Intro:

Guitar 1

D  F     E    C      G      F#  
--------------------------------------
--------------------------------------
----------------------5--5------------
--0--0----3-3-3-3-2---5--5--5-5-5-5-3-x3
--0--0----3-3-3-3-2---3--3--5-5-5-5-3-
--0--0----3-3-3-3-2---------5-5-5-5-3—

4th time:
-------------------------------------------
-------------------------------------------
--------------------- 5- 5-----------------
--0--0----3-3-3-3-2---5--5--5-5-5-5-5-\----
--0--0----3-3-3-3-2---3--3--5-5-5-5-5-\----
--0--0----3-3-3-3-2---------5-5-5-5-5-\----

Guitar 2 (over third and fourth time)
DF             E
---------------------------------------------------------
---------------------------------------------------------
--5-/-7-7-7-7-7-7--7-\-5-5-/-10-10-10-10-/-12-12-12-12---
---------------------------------------------------------
--3-/-5-5-5-5-5-5--5-\-3-3-/--8--8--8--8-/-10-10-10-10---
---------------------------------------------------------

  C        G               F#   D
----------------------------------------------------------------------
----------------------------------------------------------------------
--7-/-9-9-9-9-9-9-9-9-\-5-5-5-5-5-5-/-7-7-----5-/-7-7-7-7-7-7-7-7-/---
----------------------------------------------------------------------
--5-/-7-7-7-7-7-7-7-7-\-3-3-3-3-3-3-/-5-5-----3-/-5-5-5-5-5-5-5-5-/---
----------------------------------------------------------------------

F  E          CG
------------------------------------------------------------------------------
------------------------------------------------------------------------------
--9-9-9-9-/-12-\-10-\- 9-/-12-12-12-12-12-12-12-12-\-10-10-10-10-10-10-10-10--
------------------------------------------------------------------------------
--7-7-7-7-/-10-\--8--\-7-/-10-10-10-10-10-10-10-10-\--8--8--8--8--8--8--8--8--
------------------------------------------------------------------------------




Verse:

Just bass and this guitar line, if you can link it up to chords it would be better
W/Phaser

The chords are the same 
----------------------------------------------------------------------------------
----------------3--5--3---------------------------------1-1---0----------------
----------------------------------------------------------------------------------
--7---------------------------h---p---------------------------------------------
--5-------------------------5-/-7-\-5-------------------------------------------
----------------------------------------------------------------------------------

Distortion
-----0-----1--0--------0----------0--------------------------------------------
-------------------3-------------------------------------------------------------
--------------------------------2-----2---------------- 5-5-5-5-5-5-5-5------
--0-----------------------------------------------------5-5-5-5-5-5-5-5------
-------------------------------------------------------- 3-3-3-3-3-3-3-3------
----------------------------------------------------------------------------------

2nd guitar over last chord of chorus dist w/Wah

-------------------------------------------------
--10---10--10--10--10--10--10--10--10------------
--12b--12b-12b-12b-12b-12b-12b-12b-12b-----------
-------------------------------------------------
-------------------------------------------------
-------------------------------------------------


Chorus
[ Tab from: http://www.guitartabs.cc/tabs/p/puddle_of_mudd/control_tab_ver_8.html ]
2nd guitar
----------------------------------------------------------
----------------------------------------------------------
--5-/-7-7-7-7-7-7-7-7-7-7-7-7-7-7-7-7--7-/-9-9-9-9-9-9-9-\
----------------------------------------------------------
--3-/-5-5-5-5-5-5-5-5-5-5-5-5-5-5-5-5--5-/-7-7-7-7-7-7-7-\
----------------------------------------------------------

----------------------------------------------------------
----------------------------------------------------------
--7-7-7-\-5-5-5-5-/-14-14-14-14-14-14-14-14-\-12-12-12-12-
----------------------------------------------------------
--5-5-5-\-3-3-3-3-/-12-12-12-12-12-12-12-12-\-10-10-10-10-  etc
----------------------------------------------------------

Link: Hold the open chord of D with lead

-----------------------------------------
-----------------------------------------
-----7--------7-/-14------12-/-19--------
-----------------------------------------
-----5--------5-/-12------14-/-17--------
-----------------------------------------

Bridge: Guitar 1, palm muted, Clean

--------------------------------------------------
--------------------------------------------------
--------------------------------------------------
--7-7-7-7-7-7-7-7-7-7-7-7-/-10-10-10-10-----------X8
--5-5-5-5-5-5-5-5-5-5-5-5-/--8--8--8--8-----------
--------------------------------------------------


Guitar 2, comes in after four repetitions of the above
W/Distortion

--------------------           ------------------------------------------
--------------------           ------------------------------------------
--------------------           ------------------------------------------
-5---7----5---7----- x 4       ----5--7--7--5--7--7--10------------------
-3---5----3---5-----           ----3--5--5--3--5--5---8------------------
--------------------           ------------------------------------------

and for the last time, strum the chords w/ Distortion

The Ending is pretty much the same as the chorus…

There it is…Have fun


*******************************************************************************************************

*******************************************************************************************************


Drift and Die -- Puddle of Mudd:  Db tuning

NOTE:  This song is certainly not as easy as the tabs on this site lead
       one to believe...especially for the lone acoustic guitarist.  So,
       here are some "tips."  On the intro riff, play the Dm-2 chord 
       with your first and your third fingers.  Next, add your second
       finger to form the D2 chord.  Now, you're probably struggling 
       between "dugh" and "no dugh."  Please wait.  To form the Dm2/C
       chord, slide your first finger "up" to the 6th fret on the second
       string and hit the 8th fret of the low "E" with your pinky.  Leave
       your second finger dangling, and "drape" your pinky over the 5th string
       to mute it while strumming all strings except the high "e."  Your
       pinky and the "open D fourth string" form the power on this chord
       and should ring loud and clear.  Now, to form the Dm2/B chord, 
       use that dangling second finger to hit the 7th fret of the low "E"
       while removing the pinky.  

       --rock on, kidguitar


INTRO: INTRO RIFF


    Dm2  D2 Dm2  D2 Dm2/C Dm2/B Dm2/C Dm2/B
e|---0---0---0---0----x----x-----x-----x-----
B|---6---5---6---5----6----6-----6-----6-----
G|---7---7---7---7----7----7-----7-----7-----
D|---0---0---0---0----0----0-----0-----0-----
A|---0---0---0---0----x----x-----x-----x-----
E|---x---x---x---x----8----7-----8-----7-----


BRIDGE CHORD CHART
    D   C   G   F
e|--2---0---3---1----------
B|--3---1---0---1----------
G|--2---0---0---2----------
D|--0---2---0---3----------
A|-(0)--3---2---3----------
E|--x---x---3---1----------

*******************************************************************************************************

*******************************************************************************************************
Comments