Puddle Of Mudd - Control Chords & Tabs

 

Control Chords & Tabs

Puddle Of Mudd Chords & Tabs

Version: 1 Type: Tab 0 ratings
1 star 2 stars 3 stars 4 stars 5 stars
comments

Control Tab

# Artist: Puddle of Mudd
# Song: Control
# Album: Come Clean
# Author: DSX
# Date: 7/26/02
########################

While this is only the intro (and chorus, and outro--it's the main tune), this tab
is in my honest opinion by far the easiest to play.  No tuning is required, high
distortion, and make sure not to hit that top E string for the 2nd and 4th chords
(it really blurrs it out).
[ Tab from: http://www.guitartabs.cc/tabs/p/puddle_of_mudd/control_tab.html ]
e --------------------------------------------------------------------------------
B --------------------------------------------------------------------------------
G ----55555-----7777--------------------------------------------------------------
D 7-7-55555-5-5-7777--------------------------------------------------------------
A 7-7-33333-5-5-5555--------------------------------------------------------------
E 5-5-------3-3-------------------------------------------------------------------

Repeat that about 4 times and you'll have a nice start!  Now, even though that sounds
a lot like it, we can go even further, so once you master that, try doing this:

e --------------------------------------------------------------------------------
B --------------------------------------------------------------------------------
G ----55554-----7775--------------------------------------------------------------
D 7-7-55554-5-5-7775--------------------------------------------------------------
A 7-7-33332-5-5-5553--------------------------------------------------------------
E 5-5-------3-3-------------------------------------------------------------------

Easy, isn't it?  It also plays well on acoustic.  

---DSX---
Comments