Puddle Of Mudd - Bring Me Down Chords & Tabs

 

Bring Me Down Chords & Tabs

Puddle Of Mudd Chords & Tabs

Version: 3 Type: Tab 0 ratings
1 star 2 stars 3 stars 4 stars 5 stars
comments

Bring Me Down Tab

-------------------------------------------------------------------------------
			     Bring Me Down Ė Puddle of Mudd
-------------------------------------------------------------------------------

By: Adam Haque

Iím sure this is pretty much 100% correct. Song Structure is at the bottom if
You cant figure it out yourself!
Intro:
e|---------------------------------------------------------------------------|
B|---------------------------------------------------------------------------|
G|--------------------------------8--8--8--8---7--7--7---6---6---------------|
D|---6--6--6--6---9--9--9--9--9---8--8--8--8---7--7--7---6---6---------------|
A|---6--6--6--6---9--9--9--9--9---6--6--6--6---5--5--5---4---4---------------|
E|---4--4--4--4---7--7--7--7--7----------------------------------------------|

Verse:
e|---------------------------------------------------------------------------|
B|---------------------------------------------------------------------------|
G|--------------------------------8--8--8--8---7--7--7---6---6---------------|
D|---6--6--6--6---9--9--9--9--9---8--8--8--8---7--7--7---6---6---------------|
A|---6--6--6--6---9--9--9--9--9---6--6--6--6---5--5--5---4---4---------------|
E|---4--4--4--4---7--7--7--7--7----------------------------------------------|
Pm   .  .  .  .   .  .  .  .  .   .  .  .  .   .  .  .   .   .
[ Tab from: http://www.guitartabs.cc/tabs/p/puddle_of_mudd/bring_me_down_tab_ver_3.html ]
Interlude: (theyíve evaporated)
actually starts as 4th bar of verse then goes into this
e|---------------------------------------------------------------------------|
B|---------------------------------------------------------------------------|
G|-----------------------------------8-----7-----6-----8-----7-----6-----8---|
D|---6--6--6--6---9--9--9--9--9-----8-----7-----6-----8-----7-----6-----8----|
A|---6--6--6--6---9--9--9--9--9----6-----5-----4-----6-----5-----4-----6-----|
E|---4--4--4--4---7--7--7--7--7----------------------------------------------|
Pm   .  .  .  .   .  .  .  .  .   

Chorus :
e|------------------------------------*--------------------------------------|
B|------------------------------------*--------------------------------------|
G|--7--7--7--7--7---6--6--6--6---4--4-*--------------------------------------|
D|--7--7--7--7--7---6--6--6--6---4--4-*-6--6--6--6--6---4--4--4--4--4--------|
A|--5--5--5--5--5---4--4--4--4---2--2-*-6--6--6--6--6---4--4--4--4--4--------|
E|------------------------------------*-4--4--4--4--4---2--2--2--2--2--------|
On the first chorus second time round stop at the asterixes.

2nd Interlude: (what I think about I donít wanna think about)
e|---------------------------------------------------------------------------|
B|---------------------------------------------------------------------------|
G|---------------------------------------------------------------------------|
D|--4--4--4--slide--6--6--6--------------------------------------------------|
A|--4--4--4--slide--6--6--6--------------------------------------------------|
E|--2--2--2--slide--4--4--4--------------------------------------------------|

Song Structure:
Intro x2
Verse x3
Interlude x1
Chorus x2
Intro x1
Verse x3
Interlude x1
Chorus x4
2nd interlude x9
Intro x3
Verse x1
Interlude x1
Chorus x4
2nd Interlude Carry on till fade out


Comments