Puddle Of Mudd - Blurry Chords & Tabs

 

Blurry Chords & Tabs

Puddle Of Mudd Chords & Tabs

Version: 8 Type: Tab 0 ratings
1 star 2 stars 3 stars 4 stars 5 stars
comments

Blurry Tab

tabbed by Tim Hill
        skatin2005@yahoo.com

that is all that i have figured out so far....any questions or comments email me.....


----------------------|----------------------|
----------------------|----------------------|
---5---4---5---4---5--|---5---4---5---4---5--|
--4-5---4---5---4---5-|--4-5---4---5---4---5-|
-3---3---3---3---3----|-5---5---5---5---5----|
----------------------|----------------------|
[ Tab from: http://www.guitartabs.cc/tabs/p/puddle_of_mudd/blurry_tab_ver_8.html ]
-------------------5--|-------------------5--|
--------------------5-|--------------------5-|
---5---4---5---4------|---5---4---5---4------|
--4-5---4---5---4-----|--4-5---4---5---4-----|
-7---7---7---7---7----|-7---7---7---7---7----|
----------------------|----------------------|

-------------------17-|-15----------------17-|
----------------------|----------------------|
----------------------|----------------------|
----------------------|----------------------|
----------------------|----------------------|
----------------------|----------------------|

-0-0-0-0-0-0-0-0------|-2-2-2-2-2-2-2-2------|
-1-1-1-1-1-1-1-1------|-3-3-3-3-3-3-3-3------|
-0-0-0-0-0-0-0-0------|-2-2-2-2-2-2-2-2------|
-2-2-2-2-2-2-2-2------|-0-0-0-0-0-0-0-0------|
-3-3-3-3-3-3-3-3------|----------------------|
----------------------|----------------------|
     repeat once            repeat once
Comments