Puddle Of Mudd - Blurry Chords & Tabs

 

Blurry Chords & Tabs

Puddle Of Mudd Chords & Tabs

Version: 6 Type: Tab 0 ratings
1 star 2 stars 3 stars 4 stars 5 stars
comments

Blurry Tab

   
#---------------------------------YOU BEST NOTE-------------------------------#
#This file is the author's own work and represents their interpretation of the#
#song. You may only use this file for private study, scholarship, or research.#
#-----------------------------------------------------------------------------#

Blurry -- Puddle of Mudd

Transcribed by Brian S.


^ - Natural Harmonic
/ - slide (or strum in some cases)


Intro/Verse : Guitar 1 (Acoustic)
    
Guitar 2 Plays Chords 2nd time   
      
    Cadd9      Dsus2
Eb----------------------------------------------------------------------|
Bb----------------------------------------------------------------------|
Gb------5^----4^----5^-----4^----5^-------5^----4^-----5^-----4^----5^--|
Db----4^--5^----4^----5^-----4^----5^---4^--5^----4^-----5^-----4^----5^|
Ab--3-------3-----3-----3------3------5-------5-----5------5------5-----|
Eb----------------------------------------------------------------------|
    Em7      Em
Eb------------------------------5^----------------------------------5^--|
Bb--------------------------------5^--------------------------4^------5^|
Gb------5^----4^----5^----4^--------------5^----4^-----5^-------5^------|
Db----4^--5^----5^----4^----5^----------4^--4^----5^-----4^-------7-----|
Ab--7-------7-----7-----7-----7-------7-------7-----7------7------------|
Eb----------------------------------------------------------------------|

Pre-Chorus thing (1:07) 

Guitar 2 w/ dist : (/ - strum)
Eb-----------------------------------------------------------|
Bb-----------------------------------------------------------|
Gb-7/--14--13--13--14--/-13--13---19--/-/-/-/--21-/-/-/-/-/--|
Db-----------------------------------------------------------|
Ab-5/--12--11--11--12--/-11--11---17--/-/-/-/--19-/-/-/-/-/--|
Eb-----------------------------------------------------------|
  chorus :
Eb-------------------------------------|
Bb-------------------------------------|
Gb--23-/-/-/-/-/--24-/-/--24vvvvvvvvv--|
Db-------------------------------------|
Ab--21-/-/-/-/-/--22-/-/--22vvvvvvvvv--|
Eb-------------------------------------|

Chorus :
[ Tab from: http://www.guitartabs.cc/tabs/p/puddle_of_mudd/blurry_tab_ver_6.html ]
        
Interlude : (2:51)
   3x
Eb|----------------------------------------|-------------------|
Bb|----------------------------------------|-------------------|
Gb|---11-/12-12---11/12\11v-12-/-12\11-----|--11/12-/-12b------|
Db|----------------------------------------|-------------------|
Ab|---9--/10-10---9-/10\9vv-10-/-10\9------|--9-/10-/-10b------|
Eb|-------------0-------------------0-0-0--|--------------0-0--|

       Bridge :
Eb--------------------|-----------------------------------------|
Bb--------------------|-----------------------------------------|
Gb--11/14-/-/-/-16-/--|--16-------------16\\14---14-----14\\7---|
Db--------------------|-----------------------------------------|
Ab--9-/12-/-/-/-14-/--|--14-------------14\\12---12-----12\\5---|
Eb--------------------|-----------------------------------------|

Eb----------------------------|
Bb----------------------------|
Gb--7---11--11-/12------------|
Db----------------------------|
Ab--5---9---9--/10-etc...-----|
Eb----------------------------|

Solo : (3:52) w/ phase shifter, chorus, delay, and dist.
Eb---------------------------------------------------------------|
Bb---------------------------------------------------------------|
Gb--------12-----------------------------------12vv--------------|
Db--12h14-----14-14-14--12vv-14-14-14-14-12-14------14-12-14-14--|
Ab---------------------------------------------------------------|
Eb---------------------------------------------------------------|

Eb---------------------------------------------------------|
Bb---------------------------------------------------------|
Gb--------12-----------------------------------------------|
Db--12-14----14-14-14-12vv-14-14-14-14-14-12-12-12-12-12v--|
Ab---------------------------------------------------------|
Eb---------------------------------------------------------|
Guitar 2 :
Eb---------------------------------------------------------------|
Bb---------------------------------------------------------------|
Gb--------12-----------------------------------12vv--------------|
Db--12h14-----14-14-14--12vv-14-14-12-12-14-14------14-12-14-14--|
Ab---------------------------------------------------------------|
Eb---------------------------------------------------------------|
Guitar 3 :
Eb---------------------------------------------------------------|
Bb---------------------------------------------------------------|
Gb----------------------14vv-14-14-14-14-14-14--13vvvvvvvvvvvvvv-|
Db---------------------------------------------------------------|
Ab---------------------------------------------------------------|
Eb---------------------------------------------------------------|

Outro is basically the intro with some extra harmonics thrown in.
Comments