Puddle Of Mudd - Blurry Acoustic Chords & Tabs

 

Blurry Acoustic Chords & Tabs

Puddle Of Mudd Chords & Tabs

Version: 1 Type: Tab 0 ratings
1 star 2 stars 3 stars 4 stars 5 stars
comments

Blurry Acoustic Tab

By Da_Gr8_IsPuK

i would usually write down the name of the chords, but guess what!
i can't remember them!!!! :(

Standard tuning (EADGBE)

Strumming patterns are up to you on this one, whatever sounds good to you, do it!

Verse.

"everythings so blurry..."       "Everybodys Empty..."
|-0-0-0-0-0-0-0-0-0-0-0-0-0-0-0-0-0-0-0-0-0-0-0-0-0-0-0-0-0-0-0-0----|
|-3-3-3-3-3-3-3-3-3-3-3-3-3-3-3-3-3-3-3-3-3-3-3-3-3-3-3-3-3-3-3-3----|
|-0-0-0-0-0-0-0-0-2-2-2-2-2-2-2-2-0-0-0-0-0-0-0-0-0-0-0-0-0-0-0-0----|
|-2-2-2-2-2-2-2-2-0-0-0-0-0-0-0-0-2-2-2-2-2-2-2-2-2-2-2-2-2-2-2-2----|
|-3-3-3-3-3-3-3-3-----------------2-2-2-2-2-2-2-2-2-2-2-2-2-2-2-2----|
|---------------------------------0-0-0-0-0-0-0-0-0-0-0-0-0-0-0-0----|

"Preoccupied without you..."     "my whole world surrounds you...."
|-0-0-0-0-0-0-0-0-0-0-0-0-0-0-0-0-0-0-0-0-0-0-0-0-0-0-0-0-0-0-0-0----|
|-3-3-3-3-3-3-3-3-3-3-3-3-3-3-3-3-0-0-0-0-0-0-0-0-0-0-0-0-0-0-0-0----|
|-0-0-0-0-0-0-0-0-2-2-2-2-2-2-2-2-1-1-1-1-1-1-1-1-1-1-1-1-1-1-1-1----|
|-2-2-2-2-2-2-2-2-0-0-0-0-0-0-0-0-2-2-2-2-2-2-2-2-2-2-2-2-2-2-2-2----|
|-3-3-3-3-3-3-3-3-----------------2-2-2-2-2-2-2-2-2-2-2-2-2-2-2-2----|
|---------------------------------0-0-0-0-0-0-0-0-0-0-0-0-0-0-0-0----|

"You could be my someone....."   "know that i will..."
|-0-0-0-0-0-0-0-0-0-0-0-0-0-0-0-0-0-0-0-0-0-0-0-0-0-0-0-0-0-0-0-0----|
|-3-3-3-3-3-3-3-3-3-3-3-3-3-3-3-3-3-3-3-3-3-3-3-3-3-3-3-3-3-3-3-3----|
|-0-0-0-0-0-0-0-0-2-2-2-2-2-2-2-2-0-0-0-0-0-0-0-0-0-0-0-0-0-0-0-0----|
|-2-2-2-2-2-2-2-2-0-0-0-0-0-0-0-0-2-2-2-2-2-2-2-2-2-2-2-2-2-2-2-2----|
|-3-3-3-3-3-3-3-3-----------------2-2-2-2-2-2-2-2-2-2-2-2-2-2-2-2----|
|---------------------------------0-0-0-0-0-0-0-0-0-0-0-0-0-0-0-0----|
[ Tab from: http://www.guitartabs.cc/tabs/p/puddle_of_mudd/blurry_acoustic_tab.html ]
"Wonder what youre doing..."     "oceans in between us..."
|-0-0-0-0-0-0-0-0-0-0-0-0-0-0-0-0-0-0-0-0-0-0-0-0-0-0-0-0-0-0-0-0----|
|-3-3-3-3-3-3-3-3-3-3-3-3-3-3-3-3-0-0-0-0-0-0-0-0-0-0-0-0-0-0-0-0----|
|-0-0-0-0-0-0-0-0-2-2-2-2-2-2-2-2-1-1-1-1-1-1-1-1-1-1-1-1-1-1-1-1----|
|-2-2-2-2-2-2-2-2-0-0-0-0-0-0-0-0-2-2-2-2-2-2-2-2-2-2-2-2-2-2-2-2----|
|-3-3-3-3-3-3-3-3-----------------2-2-2-2-2-2-2-2-2-2-2-2-2-2-2-2----|
|---------------------------------0-0-0-0-0-0-0-0-0-0-0-0-0-0-0-0----|

CHORUS

"can you take..."                "when you shoved..."
|--------------------------------------------------------------------|
|--------------------------------------------------------------------|
|-5-5-5-5-5-5-5-5-7-7-7-7-7-7-7-7-9-9-9-9-9-9-9-9-9-9-9-9-9-9-9-9----|
|-5-5-5-5-5-5-5-5-7-7-7-7-7-7-7-7-9-9-9-9-9-9-9-9-9-9-9-9-9-9-9-9----|
|-3-3-3-3-3-3-3-3-5-5-5-5-5-5-5-5-7-7-7-7-7-7-7-7-7-7-7-7-7-7-7-7----|
|-3-3-3-3-3-3-3-3-5-5-5-5-5-5-5-5-7-7-7-7-7-7-7-7-7-7-7-7-7-7-7-7----|

"can you take..."                "when you shoved..."
|--------------------------------------------------------------------|
|--------------------------------------------------------------------|
|-5-5-5-5-5-5-5-5-7-7-7-7-7-7-7-7-9-9-9-9-9-9-9-9-9-9-9-9-9-9-9-9----|
|-5-5-5-5-5-5-5-5-7-7-7-7-7-7-7-7-9-9-9-9-9-9-9-9-9-9-9-9-9-9-9-9----|
|-3-3-3-3-3-3-3-3-5-5-5-5-5-5-5-5-7-7-7-7-7-7-7-7-7-7-7-7-7-7-7-7----|
|-3-3-3-3-3-3-3-3-5-5-5-5-5-5-5-5-7-7-7-7-7-7-7-7-7-7-7-7-7-7-7-7----|

Optional Solo

Here you can either repeat the verse a few times, or you can use the Electric
version of the solo, which i worked to be:-


|-------------------------------------------------------|
|-------------------------------------------------------|
|-------------------------------------------------------|
|----4-5-5-5-5--4-5-5-4-5-4-5-5~------------------------|
|-------------------------------------------------------|
|-------------------------------------------------------|

And repeat it twice.

Bridge Is the verse riff repeated.

Structure: -

Verse
Chorus
Verse
Chorus
Solo
Bridge
Chorus

It sounds really good, and seeing as i haven't seen an acoustic performance tab
around, i'm pretty sure theres no one else whos done it. If you can think of
better chords to use, Email them to da_gr8_ispuk@hotmail.com
Comments