Puddle Of Mudd - Away From Me Chords & Tabs

 

Away From Me Chords & Tabs

Puddle Of Mudd Chords & Tabs

Version: 3 Type: Tab 0 ratings
1 star 2 stars 3 stars 4 stars 5 stars
comments

Away From Me Tab

   
this is the first single off of puddle of mudd's new album, "life on display."
make sure u pick up this awesome CD. 

tunning: drop-D 1/2 step down(Db Ab Db Gb Bb Eb)

intro clean
---------------------------------------------------
-0-0-0-0-0-0-0-0-0-0-0-0-0-0-0-0-0-0-0-0-0-0-0-0---
-4-4-4-4-4-4-4-4-7-7-7-7-5-5-5-5-4-4-4-4-4-4-4-4---
---------------------------------------------------
---------------------------------------------------
---------------------------------------------------

---------------------------------------------------
-6-6-6-6-5-5-5-5-4-4-4-4-4-4-4-4-7-7-7-7-5-5-5-5---
-4-4-4-4-4-4-4-4-4-4-4-4-4-4-4-4-4-4-4-4-4-4-4-4---
---------------------------------------------------
---------------------------------------------------
---------------------------------------------------
                            distortion in
---------------------------------------------------
-0-0-0-0-0-0-0-0-0-0-0-0-0-0-----------------------
-4-4-4-4-4-4-4-4-4-4-4-4-4-4-4h5-------------------
---------------------------------------------------
---------------------------------------------------
---------------------------------------------------
[ Tab from: http://www.guitartabs.cc/tabs/p/puddle_of_mudd/away_from_me_tab_ver_3.html ]
chorus distrotion
---------------------------------------------------
---------------------------------------------------
---------------------------------------------------
-9--9--9-9---3--3-3-3--0--0--0--0------------------
-9--9--9-9---3--3-3-3--0--0--0--0------------------
-9--9--9-9---3--3-3-3--0--0--0--0------------------

verse clean
---3---3-------3---3--------3---5---3--------------
-4---4-------4---4--------4---4---4---4------------
---------------------------------------------------
---------------------------------------------------
---------------------------------------------------
---------------------------------------------------

chorus
verse
chorus

bridge distortion
---------------------------------------------------
---------------------------------------------------
-4--4---7--7---------------------------------------
-4--4---7--7---7-7-7---2--2--2---------------------    4X 
-2--2---5--5---7-7-7---2--2--2---------------------
---------------7-7-7---2--2--2---------------------

---------------------------------------------------
---------------------------------------------------
---------------------------------------------------
--0---0---0---0---0--0--2---2--2---5--5----7--7----
--0---0---0---0---0--0--2---2--2---5--5----7--7----
--0---0---0---0---0--0--2---2--2---5--5----7--7----

repeat chorus
Comments