Pseudopod - Dante Chords & Tabs

 

Dante Chords & Tabs

Pseudopod Chords & Tabs

Version: 1 Type: Tab 0 ratings
1 star 2 stars 3 stars 4 stars 5 stars
comments

Dante Tab

   
www.pseudopod.net

Dante by Pseudopod

These are straight from the source; Ross! Enjoy!

Verse:
     Cm9           F13
e |-------------|---------------|
B |----3-3-3----|----3-3-3------|
G |----3-3-3----|----3-3-3------|
D |----1-1-1----|---------------|
A |--3----------|------------1--|
E |----------3--|--1-------3----|

Bridge:
     Ab7#4
e |-----------|
B |----3-3-3--|
G |----5-5-5--|
D |----6-6-6--|
A |-----------|
E |--4--------|

Pre-Chorus:
    Gm7  C7  Bmaj7   Bb
e |-------------------------|
B |--3---3------------------|
G |--3---3---3-3-3---3-3-3--|
D |--3---2---1-1-1---1-1-1--|
A |------3---2-2-2---1-1-1--|
E |--3----------------------|

[ Tab from: http://www.guitartabs.cc/tabs/p/pseudopod/dante_tab.html ]
Chorus:
     Eb      Eb/Db   Eb/C    Bbsus   Bb
e |-----------------------------------------|
B |-----------------------------------------|
G |--8-8-8---8-8-8---8-8-8---8-8-8---7-7-7--|
D |--8-8-8---8-8-8---8-8-8---8-8-8---8-8-8--|
A |--6-6-6----------------------------------|
E |----------9-9-9---8-8-8---6-6-6---6-6-6--|

Interlude:
e |------------------------------| (Repeat this
B |---------------6---6---6-6\4--|  section Twice)
G |------------------------------|
D |------------------------------|
A |------6-8-10-6---6---6--------|
E |--4/8-------------------------|

e |--------------------------|
B |-------------11-11-9-8-6--|
G |-----------------------4--| ==> Into
D |-----------------------6--| ==>   Solo
A |------6-8-10-11-11-9-8-4--|
E |--4/8---------------------|

Main Riff (for Solo?):
e |-------------|
B |-------------|
G |--5\3---3----|
D |------5---x--|
A |-------------|
E |-------------|
Comments