Proud Mary - Give A Little Love Chords & Tabs

 

Give A Little Love Chords & Tabs

Proud Mary Chords & Tabs

Version: 1 Type: Tab 1 rating
1 star 2 stars 3 stars 4 stars 5 stars
comments

Give A Little Love Tab

   
Song: Give a little love
Artist:Proud mary
Tabbed by:keith clark 8/8/02
Mrnicesg@blueyonder.co.uk



        EADGBe
G     = 320033
Bm    = x24432
C     = x32010
D     = xxo232

intro:

G Bm C G
G Bm C D

      G             Bm          C                  G
e-----------------------------------------------------------------
B----15b-15b---15b---12----12-------------------------------------
G--------------------------------------12---14b--12--12-----------
D------------------------------12h14------------------------------
A-----------------------------------------------------------------
E-----------------------------------------------------------------


      G             Bm          C                  G
e-----------------------------------------------------------------
B----15b-15b---15b---12----12-------------------------------15----
G--------------------------------------12---14b--12--14b----14r---
D------------------------------12h14------------------------------
A-----------------------------------------------------------------
E-----------------------------------------------------------------


Verse 1:

          G            Bm          C          G
With your Arms out Reaching, And nobody's Speaking
          G              Bm              C                      D           D
And your Heart's Still Bleedin, and all the lies are turned on you
            G           Bm            C          G
And you've Been Sat Drinkin, and you got to thinkin,
           G         Bm             C             D           D
When I'm down I'm Sinkin, No light will shine on you


Chorus:

C					      G			  D/F#
Once you get a little Love you gonna get some love right back
Em7                                     Dsus2
See the sign and you move on down, The railroad track
C					      G                 D/F#  
Once you get a little love you gonna get some love right back
     Em7                                          Dsus2
I've seen it before as a matter i know that it's true
    Em7				            G	        Bm       C        G
the sooner your Sure, you get a little love back too


      G             Bm          C                  G
e-----------------------------------------------------------------
B----15b-15b---15b---12----12-------------------------------15----
G--------------------------------------12---14b--12--14b----14r---
D------------------------------12h14------------------------------
A-----------------------------------------------------------------
E-----------------------------------------------------------------

[ Tab from: http://www.guitartabs.cc/tabs/p/proud_mary/give_a_little_love_tab.html ]
      G             Bm          C                  G
e-----------------------------------------------------------------
B----15b-15b---15b---12----12-------------------------------------
G--------------------------------------12---14b--12--12-----------
D------------------------------12h14------------------------------
A-----------------------------------------------------------------
E-----------------------------------------------------------------

      G             Bm          C                  G
e-----------------------------------------------------------------
B----15b-15b---15b---12----12-------------------------------------
G--------------------------------------12---14b--12--12-----------
D------------------------------12h14------------------------------
A-----------------------------------------------------------------
E-----------------------------------------------------------------


Verse2:
         G        Bm         C              G
Well we keep on Hoping, But you was only Joking
        G          Bm          C                    D
Down inside your Choking, and you find your on the Floor
            G           Bm            C          G
Weve Been Sat Drinkin, and you got to thinkin,
           G         Bm             C             D       D 
When I'm down I'm Sinkin, No light will shine on you          



Chorus:

C					      G			  D/F#
Once you get a little Love you gonna get some love right back
Em7                                     Dsus2
See the sign and you move on down, The railroad track
C					      G                 D/F#  
Once you get a little love you gonna get some love right back
     Em7                                          Dsus2
I've seen it before as a matter i know that it's true
    Em7				            G	        Bm       C        G
the sooner your Sure, you get a little love back too


      G             Bm          C                  G
e-----------------------------------------------------------------
B----15b-15b---15b---12----12-------------------------------15----
G--------------------------------------12---14b--12--14b----14r---
D------------------------------12h14------------------------------
A-----------------------------------------------------------------
E-----------------------------------------------------------------

      G             Bm          C                  G
e-----------------------------------------------------------------
B----15b-15b---15b---12----12-------------------------------------
G--------------------------------------12---14b--12--12-----------
D------------------------------12h14------------------------------
A-----------------------------------------------------------------
E-----------------------------------------------------------------

      G             Bm          C                  G
e-----------------------------------------------------------------
B----15b-15b---15b---12----12-------------------------------------
G--------------------------------------12---14b--12--12-----------
D------------------------------12h14------------------------------
A-----------------------------------------------------------------
E-----------------------------------------------------------------


thats it any comments email me at mrnicesg@blueyonder.co.uk thanks
Comments