Protest The Hero - No Stars Over Bethlehem Chords & Tabs

 

No Stars Over Bethlehem Chords & Tabs

Protest The Hero Chords & Tabs

Version: 1 Type: Tab

No Stars Over Bethlehem Tab

No Stars Over Bethlehem
PROTEST THE HERO

hey PTH Fans.. I was just browsing through some of the tabs, and its
important to note that Protest tunes down a half step, and tunes the low
E down a full step. Making the tuning C#G#C#F#A#D#. Also, its pretty cool
that tim himself helped us out with Divinity Within, thats wicked. i just tabbed the
intro to No Stars because I'm pretty busy with school. hopefully over the break i'll
be able to sit down and do the whole thing. But just so you know, the tab for Turn
Soonest is way off. I think this is pretty accurate.


Played very fast.

Left Guitar
                                              T       T
-----1---0-----------------0h1h4--------------15p12p7-14p11p7------|
-------3---1-3-0-1---0h1h3-----------------------------------------|
-------------------2-----------------------------------------------|
-2-2-----------------------------2---6/7-9--3----------------------|
-2-2-----------------------------2---------------------------------|
-2-2-----------------------------2---6/7-9--3----------------------|

                                   T       T
------------------------------7h11h14-7h12h15-|
----------------------------------------------|
-----1h2-4------------1h2-4-------------------|
-2-2-------3-2-2-2--2-------3-----------------|
-2-2---------2-2-2--2-------------------------|
-2-2---------2-2-2--2-------------------------|
[ Tab from: http://www.guitartabs.cc/tabs/p/protest_the_hero/no_stars_over_bethlehem_tab.html ]
                             T       T
-----------------------------15p12p7-14p11p7--|
----------------------------------------------|
---1h2-4-------------1h2-4--------------------|
-2-------3--2-2-2--2-------3------------------|
-2----------2-2-2--2--------------------------|
-2----------2-2-2--2--------------------------|

--------------------------|
--------------------------|
--------------------------|
-2--2-2-2-2--2--2-2-------|
-2--2-2-2-2--2--2-2-------|
-2--2-2-2-2--2--2-2-------|


Right Guitar
						 T       T
------5-1-3-0-1---0------4-7---------------------15p12p7-14p11p7---|
----------------3---3h5h6------------------------------------------|
-------------------------------------------------------------------|
-2-2-----------------------------2----9/10-12--6-------------------|
-2-2-----------------------------2---------------------------------|
-2-2-----------------------------2----9/10-12--6-------------------|

-----------------------------------------------------------------------|
--0h1-3--------------0h1-3----------------------0h1-3---------0h1-3----|
--------1------------------1--------------------------1--------------1-|
-2----------2-2-2--2--------------------------2----------2-2-2---------|
-2----------2-2-2--2--------------------------2----------2-2-2---------|
-2----------2-2-2--2--------------------------2----------2-2-2---------|


--------------------------|
--------------------------|
--------------------------|
-2--2-2-2-2--2--2-2-------|
-2--2-2-2-2--2--2-2-------|
-2--2-2-2-2--2--2-2-------|

any comments to jordanrocks99@hotmail.com.
also check out http://www.fortycentfix.com