Protest The Hero - Heretics And Killers Chords & Tabs

 

Heretics And Killers Chords & Tabs

Protest The Hero Chords & Tabs

Version: 1 Type: Tab

Heretics And Killers Tab

Heretics And Killers
Protest The Hero
Tabbed By: Alex Re Re

I picked up this last night while listening to the song and just got the intro because
i'm too lazy to tab the whole song. Also, this song is going to be their new video that
they are recording very soon. Enjoy!!

Left Guitar - Luke Hoskin
0:00 - 0:06
D#|-----------------------------13-17-13----------|
A#|--------------------------15----------15---15--|
F#|---------------5/-7----14---------------14-----|
C#|-0-------------5/-7----------------------------|
G#|-0--0-0000000--3/-5----------------------------|
C#|-0--0-0000000----------------------------------|
       * *******
D#|-----------------------------18-17-13-----------|
A#|--------------------------15---------15---------|
F#|---------------5/-7----14--------------14-------|
C#|-0-------------5/-7-----------------------15-12-|
G#|-0--0-0000000--3/-5-----------------------------|
C#|-0--0-0000000-----------------------------------|
       * *******
[ Tab from: http://www.guitartabs.cc/tabs/p/protest_the_hero/heretics_and_killers_tab.html ]
0:06 - 0:16
D#|----------------------------------------------------|
A#|----------------------------------------------------|
F#|-------------------------------------5/-7-----7*ph--|   *2nd time/no pinch
C#|-0---------------------0-------------5/-7-----------|    harmonic *
G#|-0--0-0000000----------0--0-0000000--3/-5-----------|
C#|-0--0-0000000-0-7-00---0--0-0000000-----------------|
       * *******             * *******

0:17 - 0:19
D#|--------------------|
A#|--------------------|
F#|--7/5/8------7/5/8--|
C#|--7/5/8---0--7/5/8--|
G#|--5/3/6---0--5/3/6--|
C#|----------0---------|

0:19 - 0:25
D#|----------------------------------------|
A#|-----------------------------------0~---|
F#|----7/5/8--------------7/5/8-------0~---|
C#|-0--7/5/8--------------7/5/8-------0~---|
G#|-0--5/3/6--000-000-0---5/3/6--000-------|
C#|-0---------000-000-0----------000-------|
              *** *** *          ***


Right Guitar - Timba Millar
0:00 - 0:06
D#|------------------------------------------------|
A#|------------------------------------------------|
F#|---------------5/-7-----------------------------|
C#|-0-------------5/-7--------0--0-----------------|
G#|-0--0-0000000--3/-5--------0--0-----------------|
C#|-0--0-0000000--------------0--0-----------------|
       * *******

0:06 - 0:16 - same as left guitar

0:17 - 0:19 - just guitar 1

0:19 - 0:25
D#|-----------------------------------------------|
A#|-----------------------------------------0~----|
F#|----14/12/15--------------14/12/15-------0~----|
C#|----x-/x-/x---------------x-/x-/x--------0~----|
G#|-0--12/10/13--000-000-0---12/10/13--000--------|
C#|-0------------000-000-0-------------000--------|
                 *** *** *             ***


please rate and comment!