Protest The Hero - Blindfolds Aside Chords & Tabs

 

Blindfolds Aside Chords & Tabs

Protest The Hero Chords & Tabs

Version: 1 Type: Tab

Blindfolds Aside Tab

Protest The Hero
blindfolds aside

Tabbed By:Glen Robertson

I tried out a program called audacity that slows down the music note for note. It
really didn't work out that well, it just dropped the tone. Im not impressed with
this version of the blindfolds aside solo. I cant remove it , but I will try to
re-do it. The solo posted below the stars is very good, its by member blindfoldsaside.
So any comments or rating's for his tab please go to version2 of blindfolds aside solo.

solo.
2:05 - 2:21
e-----------------------------------------------------------------|
b-------------------------/9--------------------------------------|
g-7----6---6-7-6--4-6---------10----10--10--10p0-0-12p0-0-14p0-0--|
d---------------------4-6-----------------------------------------|
a-----------------------------------------------------------------|
d-----------------------------------------------------------------|

e-------------------------------------------------------------------------|
b-----------------------------------8-8(10b)------------------------------|
g-15p13-12h13-13-9----7--7--7p5-5b-----------7---11*-13*-14*-16*-18*-16*--|
d-------------------------------------------------------------------------|
a-------------------------------------------------------------------------|
d-------------------------------------------------------------------------|

e------------------------------------------------------------------------|
b----------12h16-20--20p17---------------------16-18-19-18------22-------|
g--------------------------17----12--12--12-16---------------14------13--|
d----14-17---------------------------------------------------------------|
a-15---------------------------------------------------------------------|
d------------------------------------------------------------------------|

*
tabbed by member:blindfoldsaside
E------------------------------------------------------------------|
B------------------------------------------------------------------|
G----------------------------------/12-9v-9--9-0---9-000-10-000----|
D--/109v9---9-9-9h10p9/7-9---------------------------------------|
A----------------------------7-9-10--------------------------------|
E------------------------------------------------------------------|
[ Tab from: http://www.guitartabs.cc/tabs/p/protest_the_hero/blindfolds_aside_tab.html ]
E------------------------------------------------------------------|
B------------------------------------------------------------------|
G14p12p11h12p11---------------------11(b12r)---9-9-9-9-11-11-11-11-|
D--------------12-10v--10-10-9(b10r)--------12---------------------|
A------------------------------------------------------------------|
E------------------------------------------------------------------|
                                                  sweep
E------------------------------------------------------10h13p10-----|
B-----------10-10-10-10-12-12-12-12-10-10-10-10------11--------11---|
G12-12-12-12---------------------------------------10------------10-|
D------------------------------------------------12-----------------|
A----------------------------------------------13-------------------|
E-------------------------------------------------------------------|

E---------------12-13-12------15-------------------------------------|
B------------15----------13------------------------------------------|
G--10-10--15---------------12----11v---12-12-11-12-14-14-12-14-16-16-|
D--------------------------------------------------------------------|
A--------------------------------------------------------------------|
E--------------------------------------------------------------------|

E----------------------------------------12h13p1212h13p12h13------|
B-------------------------------------------------------------12vv-|
G14-16-17-17-16-17-19v--19-19--17-17--17---------------------------|
D------------------------------------------------------------------|
A------------------------------------------------------------------|
E------------------------------------------------------------------|

E--------------------------------------------------------------------|
B-12--12-12-12-9v9-9--9-10-10p0-12p0-13p0-12p0-13p0-15p0-13p0-15p0-|
G--------------------------------------------------------------------|
D--------------------------------------------------------------------|
A--------------------------------------------------------------------|
E--------------------------------------------------------------------|

E-----------------------------------------------------------------|
B-17p0-15p0-13p0-15p0-12------------------------------------------|
G------------------------13v--13-13/------------------------------|
D-----------------------------------------------------------------|
A-----------------------------------------------------------------|
E-----------------------------------------------------------------|