Prophanity - Through Fire Chords & Tabs

 

Through Fire Chords & Tabs

Prophanity Chords & Tabs

Version: 1 Type: Tab 0 ratings
1 star 2 stars 3 stars 4 stars 5 stars
comments

Through Fire Tab

   
Prophanity-"WALKING THROUGH FIRE"

from the album Stronger than steel
Transcribed by Nicke

Intro riff
|-------------------------------------------------|
|-------------------------------------------------|
|-------9-7~--------9-7~--------9-7~--------9-7~--|
|---9-------9---9-------9---9-------9---9-------9-|
|-7---7-------7---7-------------------------------|
|-------------------------8---8-------7---7-------|
|                                                 |
| Let chords ring out                             |
|-------------------------------------------------|
|-------------------------------------------------|
|-9-----------------------------------------------|
|-9-----------------------10----------12----------|
|-7-----------------------10----------12----------|
|-------------------------8-----------10----------|


|--------------------------------------------------|
|--------------------------------------------------|
|-------9-7~--------9-7~--------9-7~--------9-7~---|
|---9-------9---9-------9---9-------9---9-------9--|
|-7---7-------7---7--------------------------------|
|-------------------------8---8-------7---7--------|
|                                                  |
| Let chords ring out                              |
|--------------------------------------------------|
|--------------------------------------------------|
|-9------------------------------------------------|
|-9-----------------------10----------9----10-12---|
|-7-----------------------10----------9----10-12---|
|-------------------------8-----------7----8--10---|

Play 2 times
|-------------------------------------------------|
|-------------------------------------------------|
|-------9-7~--------9-7~--------9-7~--------9-7~--|
|---9-------9---9-------9---9-------9---9-------9-|
|-7---7-------7---7-------------------------------|
|-------------------------8---8-------7---7-------|
|                                                 |
| () play second time only                        |
|-------------------------------------------------|
|-------------------------------------------------|
|-------------------------------------------------|
|(555555555555555555555)-(222222222)-(44444444444)|
|-7777777777777777777777--333333333---55555555555-|
|-------------------------------------------------|
  P.m- - - - - - - - - - - - - - - - - - - - - - 


Play 4 times
|--------------------------------------------------------------|
|--------------------------------------------------------------|
|--------------------------------------------------------------|
|-9-----9-----97-9-----9-----97-7-----7-----75-5-----4-----57--|
|-7-777-7-777-77-7-777-7-777-77-5-555-5-555-55-3-333-2-222-35--|
|--------------------------------------------------------------|
|   p.m   p.m      p.m   p.m      p.m   p.m      p.m   p.m     |
|                                                              |
|--------------------------------------------------------------|
|--------------------------------------------------------------|
|--------------------------------------------------------------|
|-5-----5-----54-5-----5-----54-4-----4-----42-2-----0-----24--|
|-7-777-7-777-77-7-777-7-777-77-5-555-5-555-55-3-333-2-222-35--|
|--------------------------------------------------------------|
    p.m   p.m      p.m   p.m      p.m   p.m      p.m   p.m

Gtr.Break      Play 4 times
|-------------|-----------------------------------------------------------------------------------------------|
|-------------|-----------------------------------------------------------------------------------------------|
|-------9-7~--|--------------------------------------------------------------------------------------7--------|
|---9-------9-|---9-10-9-10-9-7-9-7------9-10-9-10-9-7-9-7------9-10-9-10-9-7-9-7------9-10-9-10-9-7---10-9---|
|-7---7-------|-7-------------------10-7-------------------10---------------------10--------------------------|
|-------------|-----------------------------------------------8----------------------7------------------------|
|             | Trm.picking all through this one                                                              |
| Break       |                                                                                               |
|-------------|-----------------------------------------------------------------------------------------------|
|-------------|-----------------------------------------------------------------------------------------------|
|-------------|-----------------------------------------------------------------------------------------------|
|-------------|-9999999999999999999977799999999999999999999777--------------------777------------------777777-|
|-------------|-777777777777777777775557777777777777777777755510101010101010101010555999999999999999999555555-|
|-------------|-----------------------------------------------88888888888888888888---777777777777777777-------|
              Trm.picking all through



 SOLO
      p  sweep                                                          h   p
|-19-15--------15-(4-times)--17~--19-17-15-17-15-17-15-14-15-14-12.--12~--12-10--10---10~--|
|--------17--17----------------------------------------------------------------------------------------------------|
|----------16-------------------------------------------------------------------------------------------------------|
|--------------------------------------------------------------------------------------------------------------------|
|--------------------------------------------------------------------------------------------------------------------|
|--------------------------------------------------------------------------------------------------------------------|
                         b&b.back   p
|-10->12--12-14---------------12-------------------------------------------------------h--p-----------------|
|--------------------------------------13-12~-13-12-13-12~-13-12-13--slide19-17-19-17-15~-15-15-|
|------------------------------------------------------------------------------------------------------------------|
|------------------------------------------------------------------------------------------------------------------|
|------------------------------------------------------------------------------------------------------------------|
|------------------------------------------------------------------------------------------------------------------|
                                    h   p
|--------14-15-17-19-17-15-17-15-14-15-14-----Trill----Trill----Trill-----------------------|
|-15-17--------------------------------------------17-15(17)-13(15)-12(13)-12.-13-12~------|
|-------------------------------------------------------------------------------------------------------|
|-------------------------------------------------------------------------------------------------------|
|-------------------------------------------------------------------------------------------------------|
|-------------------------------------------------------------------------------------------------------|

Ok this wans't the whole song but it was a big deal of it, if you haven't heard these guys before buy there cd it's assume death/black/heavy metal!!!
There homepage http://members.tripod.com/~prophanity/index.html


[ Tab from: http://www.guitartabs.cc/tabs/p/prophanity/through_fire_tab.html ]
_________________________________________________________
DO YOU YAHOO!?
Get your free @yahoo.com address at http://mail.yahoo.com
Prophanity-"WALKING THROUGH FIRE"
from the album Stronger than steel
Transcribed by Nicke

Intro riff
|-------------------------------------------------|
|-------------------------------------------------|
|-------9-7~--------9-7~--------9-7~--------9-7~--|
|---9-------9---9-------9---9-------9---9-------9-|
|-7---7-------7---7-------------------------------|
|-------------------------8---8-------7---7-------|
|                                                 |
| Let chords ring out                             |
|-------------------------------------------------|
|-------------------------------------------------|
|-9-----------------------------------------------|
|-9-----------------------10----------12----------|
|-7-----------------------10----------12----------|
|-------------------------8-----------10----------|


|--------------------------------------------------|
|--------------------------------------------------|
|-------9-7~--------9-7~--------9-7~--------9-7~---|
|---9-------9---9-------9---9-------9---9-------9--|
|-7---7-------7---7--------------------------------|
|-------------------------8---8-------7---7--------|
|                                                  |
| Let chords ring out                              |
|--------------------------------------------------|
|--------------------------------------------------|
|-9------------------------------------------------|
|-9-----------------------10----------9----10-12---|
|-7-----------------------10----------9----10-12---|
|-------------------------8-----------7----8--10---|

Play 2 times
|-------------------------------------------------|
|-------------------------------------------------|
|-------9-7~--------9-7~--------9-7~--------9-7~--|
|---9-------9---9-------9---9-------9---9-------9-|
|-7---7-------7---7-------------------------------|
|-------------------------8---8-------7---7-------|
|                                                 |
| () play second time only                        |
|-------------------------------------------------|
|-------------------------------------------------|
|-------------------------------------------------|
|(555555555555555555555)-(222222222)-(44444444444)|
|-7777777777777777777777--333333333---55555555555-|
|-------------------------------------------------|
  P.m- - - - - - - - - - - - - - - - - - - - - - 


Play 4 times
|--------------------------------------------------------------|
|--------------------------------------------------------------|
|--------------------------------------------------------------|
|-9-----9-----97-9-----9-----97-7-----7-----75-5-----4-----57--|
|-7-777-7-777-77-7-777-7-777-77-5-555-5-555-55-3-333-2-222-35--|
|--------------------------------------------------------------|
|   p.m   p.m      p.m   p.m      p.m   p.m      p.m   p.m     |
|                                                              |
|--------------------------------------------------------------|
|--------------------------------------------------------------|
|--------------------------------------------------------------|
|-5-----5-----54-5-----5-----54-4-----4-----42-2-----0-----24--|
|-7-777-7-777-77-7-777-7-777-77-5-555-5-555-55-3-333-2-222-35--|
|--------------------------------------------------------------|
    p.m   p.m      p.m   p.m      p.m   p.m      p.m   p.m

Gtr.Break      Play 4 times
|-------------|-----------------------------------------------------------------------------------------------|
|-------------|-----------------------------------------------------------------------------------------------|
|-------9-7~--|--------------------------------------------------------------------------------------7--------|
|---9-------9-|---9-10-9-10-9-7-9-7------9-10-9-10-9-7-9-7------9-10-9-10-9-7-9-7------9-10-9-10-9-7---10-9---|
|-7---7-------|-7-------------------10-7-------------------10---------------------10--------------------------|
|-------------|-----------------------------------------------8----------------------7------------------------|
|             | Trm.picking all through this one                                                              |
| Break       |                                                                                               |
|-------------|-----------------------------------------------------------------------------------------------|
|-------------|-----------------------------------------------------------------------------------------------|
|-------------|-----------------------------------------------------------------------------------------------|
|-------------|-9999999999999999999977799999999999999999999777--------------------777------------------777777-|
|-------------|-777777777777777777775557777777777777777777755510101010101010101010555999999999999999999555555-|
|-------------|-----------------------------------------------88888888888888888888---777777777777777777-------|
              Trm.picking all through



 SOLO
      p  sweep                                                          h   p
|-19-15--------15-(4-times)--17~--19-17-15-17-15-17-15-14-15-14-12.--12~--12-10--10---10~--|
|--------17--17----------------------------------------------------------------------------------------------------|
|----------16-------------------------------------------------------------------------------------------------------|
|--------------------------------------------------------------------------------------------------------------------|
|--------------------------------------------------------------------------------------------------------------------|
|--------------------------------------------------------------------------------------------------------------------|
                         b&b.back   p
|-10->12--12-14---------------12-------------------------------------------------------h--p-----------------|
|--------------------------------------13-12~-13-12-13-12~-13-12-13--slide19-17-19-17-15~-15-15-|
|------------------------------------------------------------------------------------------------------------------|
|------------------------------------------------------------------------------------------------------------------|
|------------------------------------------------------------------------------------------------------------------|
|------------------------------------------------------------------------------------------------------------------|
                                    h   p
|--------14-15-17-19-17-15-17-15-14-15-14-----Trill----Trill----Trill-----------------------|
|-15-17--------------------------------------------17-15(17)-13(15)-12(13)-12.-13-12~------|
|-------------------------------------------------------------------------------------------------------|
|-------------------------------------------------------------------------------------------------------|
|-------------------------------------------------------------------------------------------------------|
|-------------------------------------------------------------------------------------------------------|

Ok this wans't the whole song but it was a big deal of it, if you haven't heard these guys before buy there cd it's assume death/black/heavy metal!!!
There homepage http://members.tripod.com/~prophanity/index.html
Comments