Propain - Take It Personal Chords & Tabs

 

Take It Personal Chords & Tabs

Propain Chords & Tabs

Version: 1 Type: Tab 0 ratings
1 star 2 stars 3 stars 4 stars 5 stars
comments

Take It Personal Tab

Artist: Pro-Pain
Album: Round 6
Tabber: Cru$}{3r
Mail: ChristophVIPER@aol.com
Website: http://www.crushershome.de.vu (german)

Tuning: Standart (EADGBe)

I've just tabbed the parts of the 1st guitar:

Intro
e-----------------------------|
B-----------------------------|
G-----------------------------|
D---12--10---8--10------------|
A---12--10---6--10------------|
E---10---8---6---8------------|       ++ = Play 16 times
    ++  ++  ++  ++                 

Verse
e---------------------------------------------------------|
B---------------------------------------------------------|
G---------------------------------------------------------|
D------------------------------------------------------8--|     
A---4/5-5-5--8/5-5-5-5-5-5-5-5-5--4/5-5-5--8/5-5-5-5-5-6--|
E---2/3-3-3--6/3-3-3-3-3-3-3-3-3--2/3-3-3--6/3-3-3-3-3----|
        * *      * * * * * * * *      * *      * * * *          * = Palm-mute
[ Tab from: http://www.guitartabs.cc/tabs/p/propain/take_it_personal_tab.html ]
Chorus 1
e-----------------------------|                     
B-----------------------------|                     
G-----------------------------|              
D---12--10---8--10------------|                     
A---12--10---6--10------------|                     
E---10---8---6---8------------| ++ = Play 16 times  
    ++  ++  ++  ++             
"You've wasted all my time..."



Chorus 2   
e-----------------------------|
B-----------------------------|
G-----------------------------|              
D---12--10---8--10------------|
A---12--10---6--10------------|
E---10---8---6---8------------|       ++ = Play 16 times
    ++  ++  ++  ++
"I'd walk a thousand miles"

same keyboard sound


Solo
?

End
e------|
B------|
G------|
D------|
A--4/5-|
E--2/5-|

Intro    X1
Verse    X4
Chorus 1 X2
Verse    X5
Chorus 2 X2
Verse    X2
intro    X1
with solo: verse X4
Chorus 1 X2
Verse    X4 
End      X1  

Please send corrections or the solo to: ChristophVIPER@aol.com

NOTE: This is my first tab, so I know it isn't right...but I tried my best!
Comments