Propagandhi - Ska Sucks Chords & Tabs

 

Ska Sucks Chords & Tabs

Propagandhi Chords & Tabs

Version: 4 Type: Bass Tab 0 ratings
1 star 2 stars 3 stars 4 stars 5 stars
comments

Ska Sucks Bass Tab

----------------------------------------------------------------------------
                        SKA SUCKS - PROPAGANDHI
----------------------------------------------------------------------------
By:ovuori@nettilinja.fi

intro:
G|------------------------------------------------
D|-----------4------4h-5b-4----------------------
A|----5-5-5-----5-5---------------2---------4-----
E|----------------------------3-3---3---5-5---5---
[ Tab from: http://www.guitartabs.cc/tabs/p/propagandhi/ska_sucks_btab_ver_4.html ]
ska part:
G|---------------------------------------------
D|-------4-5-7----4-5-7------------------------ this is the main thing but
A|-----5--------5------------2------7-5-4------ you can improvise some own
E|-----------------------3-3---3--5------------ line in sometimes when you
                                                when you play it
bridge:
g -------------------------------------------------------------------------
d --------------------4-7-----4-7-----4-7----4-5-7---4-5-7-----------------
a --5---5---5---5---5-------5-------5------5-------5-----------2------7-5-4
e ---------------------------------------------------------3-3---3--5------

fast part:
G|------------------------------- first it goes like this but
D|------------------------------- little longer it just
A|---5--------------------------- D-G-A
E|------3-5-3-5-3----------------

outro:
G -------------7/0-----------------
D --7-7---4------------------------
A ------7---5----------------------
E ---------------------------------
Comments