Propagandhi - Nation States Chords & Tabs

 

Nation States Chords & Tabs

Propagandhi Chords & Tabs

Version: 1 Type: Tab 0 ratings
1 star 2 stars 3 stars 4 stars 5 stars
comments

Nation States Tab

tabbed by: Dan Reid "punx72@hotmail.com"
  ^    ^     ^    ^    ^    ^
give your gratitude to. I changed it up a bit though.

Intro:
e|-----------------|---------------------------|-----------------|-----------------------------|
B|-----------------|---------------------------|-----------------|-----------------------------|
G|-3-3-3-----------|-----------------8-8-8-7-5-|-3-3-3-----------|-------------------8-8-8-7-5-|
D|-3-3-3-------0---|-3-3-3-3-5-5-5-5-8-8-8-7-5-|-3-3-3-------0---|-3-3-4-4-4-5-5-5-3-8-8-8-7-5-|
A|-1-1-1-0-1-3---1-|-3-3-3-3-5-5-5-5-6-6-6-5-3-|-1-1-1-0-1-3---1-|-3-3-4-4-4-5-5-5-3-6-6-6-5-3-|
E|-----------------|-1-1-1-1-3-3-3-3-----------|-----------------|-1-1-2-2-2-3-3-3-1-----------|
[ Tab from: http://www.guitartabs.cc/tabs/p/propagandhi/nation_states_tab.html ]
e|-----------------|---------------------------|-----------------|-----------------------------|
B|-----------------|---------------------------|-----------------|-----------------------------|
G|-3-3-3-----------|-----------------8-8-8-7-5-|-3-3-3-----------|-------------------8-8-8-7-5-|
D|-3-3-3-------0---|-3-3-3-3-5-5-5-5-8-8-8-7-5-|-3-3-3-------0---|-3-3-4-4-4-5-5-5-3-8-8-8-7-5-|
A|-1-1-1-0-1-3---1-|-3-3-3-3-5-5-5-5-6-6-6-5-3-|-1-1-1-0-1-3---1-|-3-3-4-4-4-5-5-5-3-6-6-6-5-3-|
E|-----------------|-1-1-1-1-3-3-3-3-----------|-----------------|-1-1-2-2-2-3-3-3-1-----------|

Verse:
e|-------------------------------------------------|--R--|----------|
B|-------------------------------------------------|--E--|----------|
G|-3-x-x-x-3-x-x-x-3-x-x-x-----------------8-x-x-x-|--P--|--3-5-8---|
D|-3-x-x-x-3-x-x-x-3-x-x-x-3-x-x-x-5-x-x-x-8-x-x-x-|--E--|--3-5-8-3-|
A|-1-x-x-x-1-x-x-x-1-x-x-x-3-x-x-x-5-x-x-x-6-x-x-x-|--A--|--1-3-6-3-|
E|-------------------------1-x-x-x-3-x-x-x---------|--T--|--------1-|

Do the intro after that and enjoy.

P.S. again it wasnt all done by me i just fixed it up and added sum stuff that was needed. RATE 5!!!!
Comments