Propagandhi - I Was Preteen Mccarthyist Chords & Tabs

 

I Was Preteen Mccarthyist Chords & Tabs

Propagandhi Chords & Tabs

Version: 1 Type: Tab 0 ratings
1 star 2 stars 3 stars 4 stars 5 stars
comments

I Was Preteen Mccarthyist Tab

-------------------------------------------------------------------------------
I WAS A PRE-TEEN McCARTHYIST - Propagandhi
-------------------------------------------------------------------------------

e|----------------------------------------|
B|----------------------------------------|
G|--9-9------------------9-9--9-9-9-9-----|
D|--9-9---7-7--7-7--9-9--9-9--9-9-9-9-----|
A|--7-7---7-7--7-7--9-9--7-7--7-7-7-7-----|
E|--0-0---5-5--5-5--7-7--0-0--0-0-0-0-----|

e|-------------------------------|
B|-------------------------------|
G|--9-9------------------9-9-----|
D|--9-9---7-7--7-7--9-9--9-9-----|
A|--7-7---7-7--7-7--9-9--7-7-----|
E|--0-0---5-5--5-5--7-7--0-0-----|

e|-----------2x-------|-------------------------------|
B|-----5--------------|----------------5-5-5----------|
G|--9--6--------------|-9--6--4-----9--6-6-6-4-4--2-2-|
D|--9--6--2-2--7-7--9-|-x--x--x-----9--6-6-6-4-4--2-2-|
A|--7--4--2-2--7-7--9-|-7--4--2--0--7--4-4-4-2-2--0-0-|
E|--0-----0-0--5-5--7-|-------------0-----------------|

e|-----2x-------|--------------------------|
B|-----5--------|--------------------------|
G|--9--6--4--2--|--------------------------|
D|--9--6--4--2--|--7--7--7--7--7--7--7--7--|
A|--7--4--2--0--|--7--7--7--7--7--7--7--7--|
E|--------------|--5--5--5--5--5--5--5--5--|
[ Tab from: http://www.guitartabs.cc/tabs/p/propagandhi/i_was_preteen_mccarthyist_tab.html ]
e|---------------------------------|
B|--9-9-9-9--10-10-10-10-----------|
G|--9-9-9-9---9--9--9--9--------9--|
D|--9-9-9-9---9--9--9--9--7--9--9--|
A|--7-7-7-7---7--7--7--7--7--9--7--|
E|------------------------5--7--0--|

e|----------3x------------|-------------------|
B|--9-9-9-9--10-10-10-10--|-------------------|
G|--9-9-9-9---9--9--9--9--|--9--7-------------|
D|--9-9-9-9---9--9--9--9--|--x--x-------------|
A|--7-7-7-7---7--7--7--7--|--7--5--7-7-7-7--9-|
E|------------------------|--------5-5-5-5--7-|

e|----------2x---------------|
B|---------------------------|
G|---------------------------|
D|---------9--9--------------|
A|---------7--6--9--7--9-----|
E|-0-0-0-0-0-----7--5--7-----|

e|-----4--------4--------------------5---7--|
B|--------4-------4------5------------------|
G|-----------5-------5------6-sl-8----------|
D|------------------------------------------|
A|------------------------------------------|
E|--4---------------------------------------|

e|-----------------------|-----3x----|
B|--9-9-10-9-------------|-----------|
G|--9-9--9-9--8-8-9-8----|-6---------|
D|--9-9--9-9--9-9-9-9--7-|-6--9--7---|
A|--7-7--7-7--9-9-9-9--7-|-4--9--7---|
E|------------7-7-7-7--5-|----7--5---|

e|------------------------|
B|--9-9-10-9--------------|
G|--9-9--9-9--8-8-9-8-----|
D|--9-9--9-9--9-9-9-9-----|
A|--7-7--7-7--9-9-9-9--7--|
E|------------7-7-7-7--0--|

-------------------------------------------------------------------------------
From
http://www.tapuak.de/
Comments