Propagandhi - Haillie Sellase Up Your Ass Chords & Tabs

 

Haillie Sellase Up Your Ass Chords & Tabs

Propagandhi Chords & Tabs

Version: 1 Type: Tab 0 ratings
1 star 2 stars 3 stars 4 stars 5 stars
comments

Haillie Sellase Up Your Ass Tab

-------------------------------------------------------------------------------
	        HAILLIE SELLASSE, UP YOUR ASS - Propagandhi
-------------------------------------------------------------------------------

By: Gareth Hancock

Intro

e|---------------------------------------------------------------------------|
B|---------------------------------------------------------------------------|
G|--------23-----------32----------------------------------------------------|
D|5---3---23---3---3---32-----------x4---------------------------------------|
A|5---3---45---3---3---54----------------------------------------------------|
E|7---5--------1---5---------------------------------------------------------|

Ska riff
stress the e, b, g strings on each chord.
[ Tab from: http://www.guitartabs.cc/tabs/p/propagandhi/haillie_sellase_up_your_ass_tab.html ]
e|55--33--11--33---------------------------------------------------------------------|
B|55--33--11--33---------------------------------------------------------------------|
G|66--44--22--44---------------------------------------------------------------------|
D|77--55--33--55---------------------------------------------------------------------|
A|77--55--33--55---------------------------------------------------------------------|
E|55--33--11--33---------------------------------------------------------------------|

Breakdown after 'merley keeps you in line, in line.'

e|---------------------------------------------------------------------------|
B|---------------------------------------------------------------------------|
G|---6---------4---6---------------------------------------------------------|
D|--7-7----5--4---7-7---5-7-9------------------------------------------------|
A|-7---7--5-22---7---7-5-5-7-------------------------------------------------|
E|5-----33------5-----3------------------------------------------------------|

Sorry, havn't worked out the solo at the end, but i'm working on it so i'll post it when it's done.

Have fun and thrash on.

questions, corrections, marriage proposals/coupons for free face lifts to: gazh46@hotmail.com

Comments