Promise Ring - Stop Playing Guitar Chords & Tabs

 

Stop Playing Guitar Chords & Tabs

Promise Ring Chords & Tabs

Version: 3 Type: Tab 0 ratings
1 star 2 stars 3 stars 4 stars 5 stars
comments

Stop Playing Guitar Tab

   
The Promise Ring
Stop playing guitar
By: Per Karlsson [peer83@hotmail.com]

Standard Tuning

LEGEND:
/ - slide up
\ - slide down
h - hammer on
D - down stroke
U - up stroke

RIFF 01:
e|-------------------------------------------|
B|-------------------------------------------|
G|-------------------------------------------|
D|-------------------------------------------|
A|--4-4-4/5-4-4/7-0-0-4-2-0-2-------0-4-2-0--|
E|----------------------------0-0-2----------|

RIFF 02:
e|------------------------------------------------|
B|------------------------------------------------|
G|------------------------------------------------|
D|------------------------------------------------|
A|--4-4-4/5-4-4/7-0-0-4-2-0-2-------0-4\2------0--|
E|----------------------------0-0h2--------0h2----|

VERSE: x3
e|--0--2--0--2--|
B|--2--2--0--3--|
G|--2--2--1--2--|
D|--2--4--2--0--|
A|--0--4--2--0--|
E|--x--2--0--x--|
[ Tab from: http://www.guitartabs.cc/tabs/p/promise_ring/stop_playing_guitar_tab_ver_3.html ]
CHORUS: x2
e|--0--2--0--2--|  or  e|--x--x--x--x--|
B|--2--2--0--3--|      B|--x--x--x--x--|
G|--2--2--1--2--|      G|--x--x--x--7--|
D|--2--4--2--0--|      D|--7--4--2--7--|
A|--0--4--2--0--|      A|--7--4--2--5--|
E|--x--2--0--x--|      E|--5--2--0--x--|

BRIDGE: x2                                            After second, muted
e|---------------------------------------------------|--x-x--|
B|---------------------------------------------------|--x-x--|
G|---------------------------------------------------|--7-7--|
D|----------7----------------------------------------|--7-7--|
A|--0-0-4/5---7---------7-2---------7-2-----------5--|--5-5--|
E|--------------5-2/5-7-----5-2/5-7-----5-0-0-5/7----|--x-x--|

ENDING:
    D  D  D  U  D   D  D  D  U  D   D  D
e|--x--x--x--x--x---x--x--x--x--x---0--0--0----2--|
B|--2--2--2--3--2---2--2--2--3--2---0--0----0--3--|
G|--2--2--2--2--2---2--2--2--2--2---1--1-------2--|
D|--2--2--2--2--2---4--4--4--4--4---2--2-------0--|
A|--0--0--0--x--0---4--4--4--x--4---2--2-------x--|
E|--x--x--x--x--x---2--2--2--x--2---0--0-------x--|

PROGRESSION:
riff 01: x1
riff 02: x1
verse: x3
chorus: x2
riff 02: x1
verse: x3
chorus: x2
bridge: x2
chorus: x2
riff 01: x3
riff 02: x1
ending: x1
Comments