Promise Ring - Stop Playing Guitar Chords & Tabs

 

Stop Playing Guitar Chords & Tabs

Promise Ring Chords & Tabs

Version: 2 Type: Tab 0 ratings
1 star 2 stars 3 stars 4 stars 5 stars
comments

Stop Playing Guitar Tab

This is to all the dedicated Promise Ring fans out there.
I've never seen this tab anywhere so I figured I'd at least tab the intro:
Just listen to the song and play along!!

 / = slide
 > = Hammer On

Standard Tuning
[ Tab from: http://www.guitartabs.cc/tabs/p/promise_ring/stop_playing_guitar_tab_ver_2.html ]
e|-------------------------------------------|
B|-------------------------------------------|
G|-------------------------------------------|
D|-------------------------------------------|
A|--4-4-4/5-4-4/7-0-0-4-2-0-2-------0-4-2-0--|
E|----------------------------0-0-2----------|

e|------------------------------------------------|
B|------------------------------------------------|
G|------------------------------------------------|
D|------------------------------------------------|
A|--4-4-4/5-4-4/7-0-0-4-2-0-2-------0-4\2------0--|
E|----------------------------0-0>2--------0>2----|


Enjoy!
Comments