Project Xero - Trapped Chords & Tabs

 

Trapped Chords & Tabs

Project Xero Chords & Tabs

Version: 1 Type: Tab 0 ratings
1 star 2 stars 3 stars 4 stars 5 stars
comments

Trapped Tab

   
Artist: Project Xero
Song: "Trapped"
Album: Demo 2002
Tabbed by: Shawn Greenwaldt (Guitarist)

============
TAB KEY:

P.1 = PART 1
P.2 = PART 2
p = PULL OFF
h = HAMMER ON
s = SLIDE
============


Tuning: Drop D

=====
INTRO 
=====

e|-----------------------------------|
B|-----------------------------------|X2
G|-----------------------------------|
D|-----00-------11------00------3331-|(ON THE SECOND TIME THROUGH LET THE LAST NOTE RING OUT)
A|---00--00---11--11--00--00--11-----|
D|-00-------11------00------11-------|

====================
INTRO TRANSITION P.1
====================

e|---------------------------------------------|
B|---------------------------------------------|
G|---------------------------------------------|
D|---------------------------------------------|
A|---------------------------------------------|
D|-0-0-66-55-00-0-66-55-00-0-66-550-88-66-55-6-|

====================
INTRO TRANSITION P.2
====================

e|---------------------------------------------|
B|---------------------------------------------|
G|---------------------------------------------|
D|-------------------------------------------5-|
A|-------------------------------------------5-|
D|-0-0-6665-53-0-0-6665-53-0-0-6665-53-88-66-5-|

====================
INTRO TRANSITION P.3
====================

e|---------------------------------------------|
B|---------------------------------------------|
G|---------------------------------------------|
D|-------------------------------------------5-|
A|-------------------------------------------5-|
D|-0-0-6665-53-0-0-6665-53-0-0-6665-53-88-66-5-|

======
CHORUS
======

e|---------------------------------------------|
B|---------------------------------------------|
G|---------------------------------------------|X2
D|-0-0-66-55-00-0-66-55-00-0-66-555-88-66-55-6-|
A|-0-0-66-55-00-0-66-55-00-0-66-555-88-66-55-6-|
D|-0-0-66-55-00-0-66-55-00-0-66-555-88-66-55-6-|

=========
PRE-VERSE
=========

e|-------------------------------------|
B|-------------------------------------|
G|-------------------------------------|
D|-------------------------------------|(THESE CHORDS ARE NOT PALM MUTED)
A|-----1110----3331----1110------------|
D|-0000----1111----0000----111-33p11p0-|(THESE CHORDS ARE PALM MUTED)

=======
Verse 1
=======

e|---------------------------------------------------------------|
B|---------------------------------------------------------------|
G|---------------------------------------------------------------|
D|-----1110----3331----1110---33110----1110---1110----1110-------|(NOT PALM MUTED) 
A|---------------------------------------------------------------|
D|-0000----1111----0000----111----0000----1111----0000----33p11p0|(PALM MUTED)

==========
PRE-CHORUS
==========

e|-----------------------------------|
B|-----------------------------------|
G|-----------------------------------|
D|-----1111----3333----1111---33-3-1-|
A|---------------------------------1-|
D|-0000----1111----0000----0-0-----1-|

======
CHORUS
======

e|---------------------------------------------|
B|---------------------------------------------|
G|---------------------------------------------|X2
D|-0-0-66-55-00-0-66-55-00-0-66-555-88-66-55-6-|
A|-0-0-66-55-00-0-66-55-00-0-66-555-88-66-55-6-|
D|-0-0-66-55-00-0-66-55-00-0-66-555-88-66-55-6-|

=========
PRE-VERSE
=========

e|-------------------------------------|
B|-------------------------------------|
G|-------------------------------------|
D|-----1110----3331----1110------------|(NOT PALM MUTED)
A|-------------------------------------|
D|-0000----1111----0000----111-33p11p0-|(PALM MUTED)

=======
VERSE 2
=======

e|---------------------------------------------------------------|
B|---------------------------------------------------------------|
G|---------------------------------------------------------------|
D|-----1110----3331----1110---33110----1110---1110----1110-------|(NOT PALM MUTED) 
A|---------------------------------------------------------------|
D|-0000----1111----0000----111----0000----1111----0000----33p11p0|(PALM MUTED)

==========
PRE-CHORUS
==========
[ Tab from: http://www.guitartabs.cc/tabs/p/project_xero/trapped_tab.html ]
e|-----------------------------------|
B|-----------------------------------|
G|-----------------------------------|
D|-----1111----3333----1111---33-3-1-|
A|---------------------------------1-|
D|-0000----1111----0000----0-0-----1-|

======
CHORUS
======

e|---------------------------------------------|
B|---------------------------------------------|
G|---------------------------------------------|X2
D|-0-0-66-55-00-0-66-55-00-0-66-555-88-66-55-6-|
A|-0-0-66-55-00-0-66-55-00-0-66-555-88-66-55-6-|
D|-0-0-66-55-00-0-66-55-00-0-66-555-88-66-55-6-|

=========
PRE-VERSE
=========

e|-------------------------------------|
B|-------------------------------------|
G|-------------------------------------|
D|-----1113----1113----1113------------|(NOT PALM MUTED)
A|-------------------------------------|
D|-0000----1111----0000----111-33p11p0-|(PALM MUTED)

=======
VERSE 3
=======

e|------------------------------------------------------------------|
B|------------------------------------------------------------------|
G|------------------------------------------------------------------|
D|-----1113----1113----1113---33331----1113----1113----1113---------|(NOT PALM MUTED) 
A|------------------------------------------------------------------|
D|-0000----1111----0000----111----0000-----1111-----0000----33p11p0-|(PALM MUTED)

==========
PRE-CHORUS
==========

e|-----------------------------------|
B|-----------------------------------|
G|-----------------------------------|
D|-----1111----3333----1111--------1-|
A|---------------------------------1-|
D|-0000----1111----0000----0-0-----1-|

======
CHORUS
======

e|---------------------------------------------|
B|---------------------------------------------|
G|---------------------------------------------|X2
D|-0-0-66-55-00-0-66-55-00-0-66-555-88-66-55-6-|
A|-0-0-66-55-00-0-66-55-00-0-66-555-88-66-55-6-|
D|-0-0-66-55-00-0-66-55-00-0-66-555-88-66-55-6-|

=============
INTERLUDE P.1
=============

e|-------------------------------------|
B|-------------------------------------|
G|-------------------------------------|
D|------0--------1-3------0--------3-3-|(LISTEN TO SONG FOR PALM MUTED CHORDS)
A|-0000-0-0h1111-1-3-0000-0-0h1111-3-3-|
D|-0000-0-0h1111-1-3-0000-0-0h1111-3-3-|

=============
INTERLUDE P.2
=============

e|-------------------------------------|
B|-------------------------------------|
G|-------------------------------------|
D|------0--------1-3------0--------3-3-|(LISTEN TO SONG FOR PALM MUTED CHORDS)
A|-0000-0-0h1111-1-3-0000-0-0h1111-3-3-|
D|-0000-0-0h1111-1-3-0000-0-0h1111-3-3-|

=============
INTERLUDE P.3
=============

e|----------------------------------|
B|----------------------------------|
G|----------------------------------|
D|-----11p0----33h1----11p0-------1-|(NOT PALM MUTED)
A|--------------------------------1-|
D|-0-00----1-11----0-00----11-33-11-|(PALM MUTED)[EXCEPT FOR THE LAST CHORD]

==========
PRE-CHORUS
==========

e|-----------------------------------|
B|-----------------------------------|
G|-----------------------------------|
D|-----1111----3333----1111--------1-|
A|---------------------------------1-|
D|-0000----1111----0000----0-0-----1-|

======
CHORUS
======

e|-----------------------------------------------|
B|-----------------------------------------------|
G|-----------------------------------------------|
D|-0-0-66-55-0-0-0-66-55-0-0-0-66-555-88s66s55-3-|
A|-0-0-66-55-0-0-0-66-55-0-0-0-66-555-88s66s55-3-|
D|-0-0-66-55-0-0-0-66-55-0-0-0-66-555-88s66s55-3-|

============
FINAL CHORUS
============

e|----------------------------------------------|
B|----------------------------------------------|x2
G|----------------------------------------------|
D|-0-0-66s55s3-0-0-66s55s3-0-0-66s55-3-88-66-55-|(END WITH OPEN)
A|-0-0-66s55s3-0-0-66s55s3-0-0-66s55-3-88-66-55-|
D|-0-0-66s55s3-0-0-66s55s3-0-0-66s55-3-88-66-55-|

================================================================================================
Tabbed by: Shawn Greenwaldt (Guitarist)

This tab is 100% correct. This is the easiest song to play but the most pain in the ass song
I've ever had to tab...
================================================================================================
Comments