Project Wyze - Room To Breathe Chords & Tabs

 

Room To Breathe Chords & Tabs

Project Wyze Chords & Tabs

Version: 2 Type: Tab 0 ratings
1 star 2 stars 3 stars 4 stars 5 stars
comments

Room To Breathe Tab

Room To Breathe
Project Wyze
Misfits, Strangers, Liars, Friends
Tabbed By: smackdown760@hotmail.com  

~ = Ring
{} = Bend String

- = Palm Mute

  (Intro) (Guitar 1) (Heavy Distortion) (Repeat 2x)
e|-------------------------------------------------------------|
B|-------------------------------------------------------------|
G|-------------------------------------------------------------|
D|-0-0-0-5~-0-0-0-5~-0-0-0-8~-0-0-0-8~-------------------------|
A|-0-0-0-7~-0-0-0-7~-0-0-0-6~-0-0-0-6~-------------------------|
D|-0-0-0----0-0-0----0-0-0----0-0-0----------------------------|
   - - -    - - -    - - -    - - -
  (Chorus) (Guitar 1) (Heavy Distortion)
e|-------------------------------------------------------------|
B|-------------------------------------------------------------|
G|-------------------------------------------------------------|
D|-7-7-7-7-7-7-7--7-7-7-7-7-7-7--8-8-8-8-8-8-8--8-8-8-8-8-8----|
A|-7-7-7-7-7-7-7--7-7-7-7-7-7-7--8-8-8-8-8-8-8--8-8-8-8-8-8----|
D|-5-5-5-5-5-5-5--5-5-5-5-5-5-5--6-6-6-6-6-6-6--6-6-6-6-6-6----|

  (Chorus) (Guitar 2) (Heavy Distortion)
e|-------------------------------------------------------------|
B|--{5}~~----{8}~~---{5}~~--{8}~~------------------------------|
G|-------------------------------------------------------------|
D|-------------------------------------------------------------|
A|-------------------------------------------------------------|
D|-------------------------------------------------------------|
  (You Can Barely Hear This But Its There)

  (Verse) (Guitar 1) (Heavy Distortion)
e|---18-18-18-18-18-18~----------------------------------------|
B|-------------------------------------------------------------|
G|-------------------------------------------------------------|
D|-------------------------------------------------------------|
A|-------------------------------------------------------------|
D|-------------------------------------------------------------|
  (This Parts Played Where It Says If i Was A Mic. I Give u Feed Back)
 
 (Verse) (Guitar 1) (Heavy Distortion) (Repeat 2x)
e|-------------------------------------------------------------|
B|-------------------------------------------------------------|
G|-------------------------------------------------------------|
D|-0-0-0-5~-0-0-0-5~-0-0-0-8~-0-0-0-8~--5-5-5-5----------------|
A|-0-0-0-7~-0-0-0-7~-0-0-0-6~-0-0-0-6~--7-7-7-7-Build-Up To ---|
D|-0-0-0----0-0-0----0-0-0----0-0-0----------------Chorus------|
   - - -    - - -    - - -    - - -    
 (You Can Quietly Hear This In The Background While Rapping)
[ Tab from: http://www.guitartabs.cc/tabs/p/project_wyze/room_to_breathe_tab_ver_2.html ]
  (Chorus) (Guitar 1) (Heavy Distortion)
e|-------------------------------------------------------------|
B|-------------------------------------------------------------|
G|-------------------------------------------------------------|
D|-7-7-7-7-7-7-7--7-7-7-7-7-7-7--8-8-8-8-8-8-8--8-8-8-8-8-8----|
A|-7-7-7-7-7-7-7--7-7-7-7-7-7-7--8-8-8-8-8-8-8--8-8-8-8-8-8----|
D|-5-5-5-5-5-5-5--5-5-5-5-5-5-5--6-6-6-6-6-6-6--6-6-6-6-6-6----|

  (Chorus) (Guitar 2) (Heavy Distortion)
e|-------------------------------------------------------------|
B|--{5}~~----{8}~~---{5}~~--{8}~~------------------------------|
G|-------------------------------------------------------------|
D|-------------------------------------------------------------|
A|-------------------------------------------------------------|
D|-------------------------------------------------------------|
  (You Can Barely Hear This But Its There)

 (Verse) (Guitar 1) (Heavy Distortion) (Repeat 2x)
e|-------------------------------------------------------------|
B|-------------------------------------------------------------|
G|-------------------------------------------------------------|
D|-0-0-0-5~-0-0-0-5~-0-0-0-8~-0-0-0-8~--5-5-5-5----------------|
A|-0-0-0-7~-0-0-0-7~-0-0-0-6~-0-0-0-6~--7-7-7-7-Build-Up To ---|
D|-0-0-0----0-0-0----0-0-0----0-0-0----------------Chorus------|
   - - -    - - -    - - -    - - -
 (You Can Quietly Hear This In The Background While Rapping)

  (Solo) (Guitar 1) (Clean)
e|-------------------------------------------------------------|
B|-------------------------------------------------------------|
G|-------------------------------------------------------------|
D|-----------------------------------------------0~------------|
A|-4-4-4-4-4-4-4-4-4-6-6-6-6-6-6-6-6-6-Repeated--0~------------|
D|-----------------------------------------------0~------------|
   - - - - - - - - - - - - - - - - - -
  (Solo End) (Guitar 1) (Heavy Distortion)
e|-------------------------------------------------------------|
B|-------------------------------------------------------------|
G|-------------------------------------------------------------|
D|-0-0-0-5~-0-0-0-5~-0-0-0-8~-0-0-0-8~-------------------------|
A|-0-0-0-7~-0-0-0-7~-0-0-0-6~-0-0-0-6~-------------------------|
D|-0-0-0----0-0-0----0-0-0----0-0-0----------------------------|
   - - -    - - -    - - -    - - -
(Pause As He Says "JUMP JUMP JUMP")

  (Chorus) (Guitar 1) (Heavy Distortion)
e|-------------------------------------------------------------|
B|-------------------------------------------------------------|
G|-------------------------------------------------------------|
D|-7-7-7-7-7-7-7--7-7-7-7-7-7-7--8-8-8-8-8-8-8--8-8-8-8-8-8----|
A|-7-7-7-7-7-7-7--7-7-7-7-7-7-7--8-8-8-8-8-8-8--8-8-8-8-8-8----|
D|-5-5-5-5-5-5-5--5-5-5-5-5-5-5--6-6-6-6-6-6-6--6-6-6-6-6-6----|

  (Chorus) (Guitar 2) (Heavy Distortion)
e|-------------------------------------------------------------|
B|--{5}~~----{8}~~---{5}~~--{8}~~------------------------------|
G|-------------------------------------------------------------|
D|-------------------------------------------------------------|
A|-------------------------------------------------------------|
D|-------------------------------------------------------------|
  (You Can Barely Hear This But Its There)

Comments