Project Wyze - Nothings What It Seems Chords & Tabs

 

Nothings What It Seems Chords & Tabs

Project Wyze Chords & Tabs

Version: 3 Type: Tab 0 ratings
1 star 2 stars 3 stars 4 stars 5 stars
comments

Nothings What It Seems Tab

Project Wyze, Nothing`s what it seems.
 Tabbed by spider, w_h_a_d_d_u_p@hotmail.com.
  

Stanard Tuning

soft part / intro / verse
||--0---0---0-------1---1---1-------3---3--3----
||0---0---0---0-0-1---1---1---1-1-3---3---3--3-3
||----------------------------------------------
||----------------------------------------------
||----------------------------------------------
||----------------------------------------------
[ Tab from: http://www.guitartabs.cc/tabs/p/project_wyze/nothings_what_it_seems_tab_ver_3.html ]
heavy part/chorus (one, two, one, two, im a shark infested ocean...)
||----------------------------------------------
||----------------------------------------------
||----------------------------------------------
||-2-2-x-x-x-x-2-2-x-x-x-x-2-2-x-x-2-2-2-2------
||-2-2-x-x-x-x-2-2-x-x-x-x-2-2-x-x-2-2-2-2------
||-0-0-x-x-x-x-3-3-x-x-x-x-2-2-x-x-3-3-2-3------

if i missed anything email me. 
:: Ultimate Guitar Archive :: 
http://www.ultimate-guitar.com 



Comments