Project Wyze - Denial Chords & Tabs

 

Denial Chords & Tabs

Project Wyze Chords & Tabs

Version: 1 Type: Bass Tab 0 ratings
1 star 2 stars 3 stars 4 stars 5 stars
comments

Denial Bass Tab

   
Low tuning- D, G, C, A
To play it in standard, just move everything back two frets
when in standard, E, A, D, G

Song Layout:

Intro
Verse
Pre-Chorus/Extended Verse
Chorus
2nd Verse (Play 6x instead of 4x)
Pre-Chorus/Extended Verse
Chorus
Break (play verse)
Washout (play verse riff 5x and retardando on last time)

*=slow down as you play.

There it is...PEACE!!!!

[ Tab from: http://www.guitartabs.cc/tabs/p/project_wyze/denial_btab.html ]
A----------------------------|-------------------------------------------------|
C-----9-10\-----5--------7---|----9-10///1414141414\\----5--------7------------|
G-7--7------3-3---3//5-5---5/|/7-7-------------------3-3---3//5-5---5----------|
D----------------------------|-------------------------------------------------|
 Intro: Play 1st part 2x then 2nd 2x.

---------------------------|--------------------------------------------------|
-----9-10\-----5-------7---|----9-10///1414141414\\----5--------7-------------|
-7--7------3-3---3//55---5-|-7-7-------------------3-3---3//5-5---5-----------|
---------------------------|--------------------------------------------------|
 Verse: Repeat 4x            Pre-Chorus/extended verse: repeat 4x

------------------------------------------------------------------------------|
------9-10///1414141414\\\----5--------7--------------------------------------|
--7--7--------------------3-3---3//5-5---5/-----------------------------------|
------------------------------------------------------------------------------|
 Chorus: repeat 4x
Comments