Project 86 - Steins Theme Chords & Tabs

 

Steins Theme Chords & Tabs

Project 86 Chords & Tabs

Version: 1 Type: Bass Tab 0 ratings
1 star 2 stars 3 stars 4 stars 5 stars
comments

Steins Theme Bass Tab

   
Artist: Project 86
Song: Stein's Theme
Album: Drawing Black Lines
Tabbed By: Ryan (IronMan569@aol.com)

This is a correction for the solo in the beginning.  Originally tabbed by 
"Blueflamer," who had all of it right but the solo.

Drop D Tuning

Intro
    G -----------------------
    D --7---7----------------x8
    A ----5---5-67-----------
    D -----------------------

Solo (play really fast)
    G-----------------------------------------------------
    D-700600100200302007006001002003003b5------------------
    A-----------------------------------------------------
    D-----------------------------------------------------

Verse
    G-----------------------------------------------------
    D---------------77---6--------------------------------x3 
    A------------------5---5775665857---------------------
    D-00-000-000-000--------------------------------------
[ Tab from: http://www.guitartabs.cc/tabs/p/project_86/steins_theme_btab.html ]
The last part of the verse 
    G-----------------------------------------------------
    D---------------77---6--------------------------------
    A------------------5---57756658-----------------------
    D-00-000-000-000--------------------------------------
    (Let the last note ring)

Chorus
    G-------------------------
    D-------------------------x4
    A-------------------------
    D-6--5-0---xx-------------
    After the ghost notes the guitar hits this one
    D-------------------------
    A-------------------------
    D-9~----------------------

Verse

Chorusx8

Refrain (low D string)
    D-111-111-666-111-111-XXXX-x6

    D-11-11-66-11-11----------x3 

Chorus#2 (you hate us cuz we'll never go away...)
    G--------------------------
    D--------------------------
    A--------------------------
    D-0---12~0-----------------
Or...
    G--------------------------
    D--------------------------
    A------5~------------------
    D-0------0-----------------
   
 These both sounded close so you decide...

Chorus
    
    Fill Something like this on the Low D string
    D--2210--------------------
     
Chorus#2

Comments