Project 86 - Set Me Up Chords & Tabs

 

Set Me Up Chords & Tabs

Project 86 Chords & Tabs

Version: 1 Type: Bass Tab 0 ratings
1 star 2 stars 3 stars 4 stars 5 stars
comments

Set Me Up Bass Tab

Drop D tuning

Intro
G|--------------------------|
D|--------------------------|
A|--------------------------|
D|--0---0---0---0-1111------|

Verse
G|----------------------|
D|----------------------|
A|--------5-------------|
D|--6-0-----00-{5}------|

Chorus(part 1)
G|-------------------------|
D|-------------------------|
A|-------------------------|
D|--0---0---0---0-1111-----|
[ Tab from: http://www.guitartabs.cc/tabs/p/project_86/set_me_up_btab.html ]
Chorus(part 2)
G|----------------------------------|
D|----------------------------------|
A|----------------------------------|
D|--0-{5}-0-{5}-0{5}-0-1111---------|

Bridge
G|-----------------------------------------------|
D|-----------------------------------------------|
A|-----------------------------------------------|
D|0--0001110---0001110--0----0001110--0001110--0-|

Bridge 2
G|------------------------|
D|------------------------|
A|------------------------|
D|--60000-60000-600-------|
Comments