Project 86 - Safe Haven Chords & Tabs

 

Safe Haven Chords & Tabs

Project 86 Chords & Tabs

Version: 1 Type: Tab 0 ratings
1 star 2 stars 3 stars 4 stars 5 stars
comments

Safe Haven Tab

   
"Safe Haven"
Project 86
Songs To Burn Your Bridges By


Tuning:
The song is really in
Cb, Gb, Cb, Fb, Ab, Db

But you can easily play it with:
Db, Ab, Db, Gb, Bb, Eb

INTRO and VERSE
Eb|------------------------------------------------
Bb|------------------------------------------------
Gb|------------------------------------------------
Db|-7-7-7-7-7-7-2-2-2-2-2-2-1-1-1-1-1-1-5-5-5-5-5-5
Ab|-5-5-5-5-5-5-1-1-1-1-1-1-0-0-0-0-0-0-3-3-3-3-3-3
Db|------------------------------------------------

Eb|------------------------------------------------
Bb|------------------------------------------------
Gb|------------------------------------------------
Db|-7-7-7-7-7-7-2-2-2-2-2-2-1-1-1-1-1-1------------
Ab|-5-5-5-5-5-5-1-1-1-1-1-1-0-0-0-0-0-0-3-3-3-3-3-3
Db|-------------------------------------3-3-3-3-3-3
[ Tab from: http://www.guitartabs.cc/tabs/p/project_86/safe_haven_tab.html ]
PRE-CHORUS
And even though I'm not alone...
Eb|--------------------------
Bb|--------------------------
Gb|--------------------------
Db|-7-5-7-5-7-5-7-5-14-9-12-7
Ab|-5-3-5-3-5-3-5-3-12-7-10-5
Db|--------------------------

CHORUS
Eb|---------------------------------------------------
Bb|---------------------------------------------------
Gb|---------------------------------------------------
Db|--------7-7-7-7-7-7-7-5-5-5-10-10-10-10-14-14-14-14
Ab|-0-0-0--5-5-5-5-5-5-5-3-3-3-8--8--8--8--12-12-12-12
Db|-0-0-0---------------------------------------------
(5-5-5) Would be (0-0-0) ^^^^^
(3-3-3)          (0-0-0) in Cb tuning

Eb|-----------------------------------------------
Bb|-----------------------------------------------
Gb|-----------------------------------------------
Db|--------7-7-7-7-7-7-7-3-3-3-3-5-5-5-5----7-----
Ab|-0-0-0--5-5-5-5-5-5-5-1-1-1-1-3-3-3-3----5-----
Db|-0-0-0-----------------------------------------

BRIDGE

Eb|----------------------------------
Bb|-10-10-10-9--10-10-10-9--10-10-9--
Gb|----------------------------------
Db|----------------------------------
Ab|----------------------------------
Db|----------------------------------

Play INTRO distorted
PRE-CHORUS pops in here too


OUTRO
Eb|----------------------
Bb|----------------------
Gb|----------------------
Db|----------------------
Ab|-0-0-0--0--0-0-0--0-->
Db|-0-0-0--0--0-0-0--0-->
Comments