Project 86 - One Armed Man Chords & Tabs

 

One Armed Man Chords & Tabs

Project 86 Chords & Tabs

Version: 1 Type: Tab 0 ratings
1 star 2 stars 3 stars 4 stars 5 stars
comments

One Armed Man Tab

   
here is the intro for all you p86 fans out there, cause none of the other intro were correct:

This song is really easy just get the strumming down and you have it, have fun with it

Make sure to pick up the new project 86 CD 'Truthless Heroes' it came out on sept. 24!!!!

DADGBE Tuning
[ Tab from: http://www.guitartabs.cc/tabs/p/project_86/one_armed_man_tab.html ]
E|----------------------
B|----------------------
G|--7---7-9-9-9-12-12-12
D|0-7-0-7-9-9-9-12-12-12
A|0-5-0-5-7-7-7-10-10-10
D|0---0-----------------

E|-------------------
B|-------------------
G|--7---7-9-9-9-5-5-5
D|0-7-0-7-9-9-9-5-5-5
A|0-5-0-5-7-7-7-3-3-3
D|0---0--------------
Comments