Project 86 - One Armed Man Chords & Tabs

 

One Armed Man Chords & Tabs

Project 86 Chords & Tabs

Version: 2 Type: Bass Tab 0 ratings
1 star 2 stars 3 stars 4 stars 5 stars
comments

One Armed Man Bass Tab

   
Song: One Armed Man ( Play On )
Artist: Project 86
Album: Drawing Black Lines
Tabbed By: Tommy ( punk4christ73@aol.com )

Drop D tuning.

Intro/Verse

G|---------------------------------
D|---------------------------------
A|---------------------------------
D|-O-2-0-2-033-455--0-2-0-2-455-200

chorus
G|--------------------------------------
D|--------------------------------------
A|--------------------------------------
D|-5-5-5-5-7-7-7-7-4-2-h4-2-h4-2-h4-2-h4
[ Tab from: http://www.guitartabs.cc/tabs/p/project_86/one_armed_man_btab_ver_2.html ]
Bridge
G|---------------------------------
D|---------------------------------
A|-----------------------------3-5~
D|-0000000-2-3-2-3-0000000-2-3-----
                                    (last time)
G|-------------------------------|-----------------
D|-------------------------------|-----------------
A|---------------------------3-5~|--3-----------3--
D|-0-2-3-2-3-0000000-2-3-2-3-----|3---5-5-3-0-3---5
then...          (end)
G|--------------|----
D|--------------|----
A|-0-3----------|-5-5
D|-----0-3-5-3-0|----
Comments