Project 86 - Hollow Again Chords & Tabs

 

Hollow Again Chords & Tabs

Project 86 Chords & Tabs

Version: 2 Type: Tab 0 ratings
1 star 2 stars 3 stars 4 stars 5 stars
comments

Hollow Again Tab

Title :    "Hollow Again"
Artist:    Project 86
Album :    Truthless Heroes
Tabber:    Stephen Marz (stephenmarz@netscape.net)
Date  :    22 February 2003


INTRO
Effect: Phaser
e|-----------------------------------------------
B|-----------------------------------------------
G|-11----12-11---11---12-11---12-11---11---------
D|-------------------------------------------9\--
A|-9-----10-9----9----10-9----10-9----9------9\--
D|-------------------------------------------9\--

VERSE
e|-----------------------------------------------
B|-----------------------------------------------
G|-999-101010-121212--14---999-101010-121212-16--
D|-----------------------------------------------  x2
A|-777-9-9-9--101010--12---777-9-9-9--101010-14--
D|-----------------------------------------------
[ Tab from: http://www.guitartabs.cc/tabs/p/project_86/hollow_again_tab_ver_2.html ]
PRE-CHORUS
e|-----------------------------------------------
B|-----------------------------------------------
G|-----------------------------------------------
D|-----------------------------------------------
A|-2----2--0-2----2--0-2----2--xxxx--------------
D|-2----2--0-2----2--0-2----2--xxxx--------------

CHORUS
e|-----------------------------------------------
B|-----------------------------------------------
G|-9-10-12-14---9-10-12-16---9-10-12-14----------
D|-----------------------------------------------
A|-7-9--10-12---7-9--10-14---7-9--10-12----------
D|-----------------------------------------------


INTERLUDE
e|------------------------------------------------
B|------------------------------------------------
G|-0----16161616161616---0--1616161614141414121212
D|------------------------------------------------
A|-0----14141414141414---0--1414141412121212101010
D|------------------------------------------------
Comments