Project 86 - Hollow Again Chords & Tabs

 

Hollow Again Chords & Tabs

Project 86 Chords & Tabs

Version: 1 Type: Tab 0 ratings
1 star 2 stars 3 stars 4 stars 5 stars
comments

Hollow Again Tab

   
this is an awsome song

drop C tuning (c-g-C-f-a-d)

(intro)
d-------- x4
a--------
f-4--6---
c-4--6--4
g-2--4--4
c-------4

(verse)
d-22224444555577772222444455559999 x4
a-00000000000000000000000000000000
f---------------------------------
c---------------------------------
g---------------------------------
c---------------------------------

(tag 1)
d---------------------- x4
a----------------------
f-----5-5-------5-5---5
c-4-4------------------
g-4-4------------------
c-4-4-----4-4-4-----4--

(verse)
(tag)
[ Tab from: http://www.guitartabs.cc/tabs/p/project_86/hollow_again_tab.html ]
(chorus)
d--------------------------------------------------------------------
a--------------------------------------------------------------------
f--------------------------------------------------------------------
C-4-4-4-4-6-6-6-6-7-7-7-7-9-9-9-9-4-4-4-4-6-6-6-6-7-7-7-7-10-10-10-10
g-4-4-4-4-6-6-6-6-7-7-7-7-9-9-9-9-4-4-4-4-6-6-6-6-7-7-7-7-10-10-10-10
C-4-4-4-4-6-6-6-6-7-7-7-7-9-9-9-9-4-4-4-4-6-6-6-6-7-7-7-7-10-10-10-10

d--------------------------------------------------- x4
a---------------------------------------------------
f---------------------------------------------------
C-4-4-4-4-6-6-6-6-7-7-7-7-9-9-9-9-6-6-xxxx-2-4-2x2\4
g-4-4-4-4-6-6-6-6-7-7-7-7-9-9-9-9-6-6-xxxx-2-4-2x2\4
C-4-4-4-4-6-6-6-6-7-7-7-7-9-9-9-9-6-6-xxxx-2-4-2x2\4

(tag 2)
d-22222-22-11
a-00000-00-00
f------------
c------------
g------------
c------------

(verse)
(tag 1)
(chorus)
(intro)

(tag 3)
d------99999999999-----999999777555 x4
a----------------------------------
f----------------------------------
c-4-4------------------------------
g-4-4------------------------------
c-4-4--------------4-4-------------

(tag 4)
d-999999999999999999999999999999999
a----------------------------------
f----------------------------------
c----------------------------------
g----------------------------------
c----------------------------------

(chorus)x4
(end)

thats all
Comments