Project 86 - Great Golden Gate Disaster Chords & Tabs

 

Great Golden Gate Disaster Chords & Tabs

Project 86 Chords & Tabs

Version: 1 Type: Tab 0 ratings
1 star 2 stars 3 stars 4 stars 5 stars
comments

Great Golden Gate Disaster Tab

   
The Great Golden Gate Disaster
by Project 86
c2004 Tooth and Nail

C# tuning

Intro/Verse

D#-----------------------------------------|
A#-----------------------------------------|
F#-----------------------------------9-10--|
C#--0-0-3-0-3-0----------------------9-10--|
G#--0-0-3-0-3-0-several times, then--7-8---|
C#--0-0-3-0-3-0----------------------------|

Pre-Chorus

D#------|
A#------|
F#--5-7-|
C#--5-7-|
G#--3-5-|
C#------|

Chorus

D#--------------|
A#--------------|
F#--------5--3--|
C#--0--3--5--3--|(not positive on this)
G#--0--3--3--1--|
C#--0--3--------|

End of verse 2
[ Tab from: http://www.guitartabs.cc/tabs/p/project_86/great_golden_gate_disaster_tab.html ]
D#----------------------|
A#----------------------|
F#----------------------|
C#--7-8-5-7-3-5-0-5-3-8-|
G#--7-8-5-7-3-5-0-5-3-8-|
C#--7-8-5-7-3-5-0-5-3-8-|

Bridge

D#----------------------------------------------|
A#--15------------------------------------------|
F#---x------------------------------------------|
C#--12-0-3-0-a couple times---------------------|
G#-----0-3-0----------------12-10-several times-|
C#-----0-3-0------------------------------------|

Bridge(cont.)

D#--------------------------|
A#-----------11----------13-|
F#--------12----------12----|
C#--12-13-------12-13-------|there's more, but I can't get it
G#--------------------------|
C#--------------------------|

There you go! A fairly easy song to play.
Comments