Project 86 - Chimes Chords & Tabs

 

Chimes Chords & Tabs

Project 86 Chords & Tabs

Version: 3 Type: Bass Tab 0 ratings
1 star 2 stars 3 stars 4 stars 5 stars
comments

Chimes Bass Tab

   

-----------------------------------------------------------------------------
			    Chimes-Project 86
-----------------------------------------------------------------------------

Tabbed By : C-Rock
e-mail: AnnoyingHair@aol.com

Dont bother tuning any strings to anything cause you dont need to.            
                                                      Verse #1
Intro                                 (play this 5 times until verse is over)
G|--787-787-------787-787-----------------------787-787------787-787--------|
D|----------6--66---------6-4h6-------------------------6-66---------6\4h6--|
A|-5---5---5-----5---5---5---------------------5---5---5----5---5---5-------|
E|--------------------------------------------------------------------------|

Choris x4   (Play fairly fast)
G|--------------------------------------------------------------------------|
D|--------6666--5555555555555555--------------------------------------------|
A|-5555555----55------------------------------------------------------------|
E|--------------------------------------------------------------------------|
[ Tab from: http://www.guitartabs.cc/tabs/p/project_86/chimes_btab_ver_3.html ]
Verse #2 (Only play twice)
G|--787-787------787-787----------------------------------------------------|
D|----------6-66---------6\4h6----------------------------------------------|
A|-5---5---5----5---5---5---------------------------------------------------|
E|--------------------------------------------------------------------------|

Bridge #1 x8      
G|--------------------------------------------------------------------------|
D|--3h5---------------------------------------------------------------------|
A|-5---5--------------------------------------------------------------------|
E|--------------------------------------------------------------------------|

Bridge #2
G|--------------------------------------------------------------------------|
D|--------------------------------------------------------------------------|
A|-55555--------------------------------------------------------------------|
E|------44444-33333-10010010------------------------------------------------|

Ending                                                                       
G|--------------------------------------------------------------------------|
D|---88-7-77--77-6----------------------------------------------------------|
A|-5---5----5---5-----------------------------------------------------------|
E|--------------------------------------------------------------------------|


| /  slide up                     
| \  slide down
| h  hammer-on
| p  pull-off
| ~  vibrato
| +  harmonic
| x  Mute note
Comments