Project 86 - Chapter 2 Chords & Tabs

 

Chapter 2 Chords & Tabs

Project 86 Chords & Tabs

Version: 1 Type: Tab 0 ratings
1 star 2 stars 3 stars 4 stars 5 stars
comments

Chapter 2 Tab

   
artist: projct 86
album: drawing black lines
song: chapter 2
tabbed: josh
tuning: drop d
I assure you that this is 100% correct

p: pulloff          h: hammeron         x: muted




intro: repeat 4 times
e----6-0-0--6-0-0--6-0-0--6-0-0--6-0-7----------------------------------------------


chorus
d----6-0-0--6-0-0--6-0-0--6-0-0--6-0-7-
a----6-0-0--6-0-0--6-0-0--6-0-0--6-0-7-
D---6-0-0--6-0-0--6-0-0--6-0-0--6-0-7-

verse
g----[-7--15times--8-8-8-8-7--15times--8-8-8-8] just once then never again

[ Tab from: http://www.guitartabs.cc/tabs/p/project_86/chapter_2_tab.html ]
e-x-x-x-x-x-x-x-x-x-x-x-x-x-x-x-x-x-x-x-x-x-x-x-x-x-x-x-x-x-x-x-x-x-x-x-x-
b-x-x-x-x-x-x-x-x-x-x-x-x-x-x-x-x-x-x-x-x-x-x-x-x-x-x-x-x-x-x-x-x-x-x-x-x-
g-x-x-x-x-[7--15times--8-8-8-8-5--15times--8-8-8-8]     4 times
d-x-x-x-x-x-x-x-x-x-x-x-x-x-x-x-x-x-x-x-x-x-x-x-x-x-x-x-x-x-x-x-x-x-x-x-x-
a-x-x-x-x-x-x-x-x-x-x-x-x-x-x-x-x-x-x-x-x-x-x-x-x-x-x-x-x-x-x-x-x-x-x-x-x-
d-x-x-x-x-x-x-x-x-x-x-x-x-x-x-x-x-x-x-x-x-x-x-x-x-x-x-x-x-x-x-x-x-x-x-x-x-

bridge:
d---7--15times--8-8-8-8-5--13times--x-5-x-5-7------------4times
a---7--15times--8-8-8-8-5--13times--x-5-x-5-7------------4times
D--7--15times--8-8-8-8-5--13times--x-5-x-5-7------------4times
Comments