Project 86 - A Shadow On Me Chords & Tabs

 

A Shadow On Me Chords & Tabs

Project 86 Chords & Tabs

Version: 1 Type: Tab 0 ratings
1 star 2 stars 3 stars 4 stars 5 stars
comments

A Shadow On Me Tab

A Shadow On Me
by Project 86
c2004 Tooth and Nail

Drop D tuning

Intro/Verse riff

E------2---7---2-2------------------|
B--0-3---3---3------0-3-2-2-0-3-2-2-|
G-----------------------------------|
D-----------------------------------|
A-----------------------------------|
D-----------------------------------|

Pre-chorus

E----
B----
G----
D--9-
A--9-
D--9-

Chorus
[ Tab from: http://www.guitartabs.cc/tabs/p/project_86/a_shadow_on_me_tab.html ]
E---------------------|
B---------------------|
G---------------2--4--|
D---4--2--0--2--2--4--|
A---4--2--0--2--0--2--|
D---4--2--0--2--------|

Bridge

E---------------------------------------|
B---------------------------------------|
G---------------------------------------|
D---0--2--4--0--2--4--0--2--4--0--2--9--|
A---0--2--4--0--2--4--0--2--4--0--2--9--|
D---0--2--4--0--2--4--0--2--4--0--2--9--|

Ending

E----------|
B----------|
G----------|
D--4-4-2-4-|
A--4-4-2-4-|
D--4-4-2-4-|

and there you go...
Comments