Project 86 - A Fruitless End Ever Chords & Tabs

 

A Fruitless End Ever Chords & Tabs

Project 86 Chords & Tabs

Version: 1 Type: Bass Tab 0 ratings
1 star 2 stars 3 stars 4 stars 5 stars
comments

A Fruitless End Ever Bass Tab

   
A Fruitless End Ever Bass Tabs
Project 86

This song has been bugging me for awhile. Steven Dial has a very unique style and is a
very talented bassist. I saw a few innaccurate versions of bass tabs this song on some
Christian music websites, so I'm posting a more accurate version here. Everything is
written how it should be played. I am 95% sure that this is correct. Feel free to make
changes and alter it as you play.

h  hammer-on
~  let note ring out
^  accent

Intro Bass Solo
                        
  
G |------2----3----2----0-----------|------2----3----2----0--------|
D |----0--------------------3h5-3-0-|----0--------------------1--0-|
A |--3-----3----3----3--------------|--3-----3----3----3-----------|
D |---------------------------------|------------------------------|

  Play with guitar between bass solo riffs (optional -- the part actually has no bass,
but play it if you want)


G |----------------------------------|
D |----------------------------------|
A |----------------------------------|
D |--0-0-0-2-2-2-3-3-3-5-5-5-8-8-7-7-|

--Guitar Riff--

G |------2---3--2--0---------|
D |----0-------------3h5-3-0-|
A |--3-----3--3--3-----------|
D |--------------------------|

--Guitar Riff--

G |------2-----3----2---0-------|
D |----0-------------------1--0-|
A |--3-----3-----3----3---------|
D |-----------------------------|

Verse Intro  X4

G |----------------------------------|   
D |----------------------------------|   
A |----------------------------------|   
D |--0-0-0-2-2-2-3-3-3-5-5-5-8-8-7-7-|   


Verse  X2

G |------3---3---3---3---------|------3---3---3---3-------|------3---3---3---3---------|
D |----0--------0------3h5-3-0-|----0--------0------3h5-5-|----0--------0------3h5-3-0-|
A |--3-----3---3---3-----------|--3-----3---3---3---------|--3-----3---3---3-----------|
D |----------------------------|--------------------------|----------------------------|

G |-------------------------------|
D |----------0-0-0--1-1-1--0----0-|
A |--3-3-3---------------------3--|
D |-------------------------------|


Pre-chorus  X2

G |----------------------------------|   
D |----------------------------------|   
A |----------------------------------|   
D |--0-0-0-2-2-2-3-3-3-5-5-5-8-8-7-7-|   


Chorus

G |------------------------------------|-----------------------------------|
D |------------------------------------|-----------------------------------|
A |--------------------1---1-1-1-1-1-1-|-------------------3-3-3-3-3--1--1-|
D |--0---0-0-0-0-0-0-------------------|-3---3-3-3-3-3-3-------------------|

G |------------------------------------|------------------------------------|
D |------------------------------------|------------------------------------|
A |--------------------1---1-1-1-1-1-1-|--------------------3---3-3-3-3-3-3-|
D |--0---0-0-0-0-0-0-------------------|-3--3-3-3-3-3-3---------------------|



Verse Intro
[ Tab from: http://www.guitartabs.cc/tabs/p/project_86/a_fruitless_end_ever_btab.html ]
G |----------------------------------|   
D |----------------------------------|   
A |----------------------------------|   
D |--0-0-0-2-2-2-3-3-3-5-5-5-8-8-7-7-|   


Verse  X2

G |------3---3---3---3---------|------3---3---3---3-------|------3---3---3---3---------|
D |----0--------0------3h5-3-0-|----0--------0------3h5-5-|----0--------0------3h5-3-0-|
A |--3-----3---3---3-----------|--3-----3---3---3---------|--3-----3---3---3-----------|
D |----------------------------|--------------------------|----------------------------|

G |-------------------------------|
D |----------0-0-0--1-1-1--0----0-|
A |--3-3-3--------------------3---|
D |-------------------------------|


Pre-chorus  X2

G |----------------------------------|   
D |----------------------------------|   
A |----------------------------------|   
D |--0-0-0-2-2-2-3-3-3-5-5-5-8-8-7-7-|   


Chorus  X2

G |------------------------------------|-----------------------------------|
D |------------------------------------|-----------------------------------|
A |--------------------1---1-1-1-1-1-1-|-------------------3-3-3-3-3--1--1-|
D |--0---0-0-0-0-0-0-------------------|-3---3-3-3-3-3-3-------------------|

G |------------------------------------|------------------------------------|
D |------------------------------------|------------------------------------|
A |--------------------1---1-1-1-1-1-1-|--------------------3-3-3-3-3-3-3-3-|
D |--0---0-0-0-0-0-0-------------------|-3--3-3-3-3-3-3---------------------|


Bridge

G |---------------------------------------|        
D |---------------------------------3-3-3-|        
A |--5-5-3-3-5-5-3-3-5-5-3-3-5------------|        
D |---------------------------------------|  X7  

G |--------------------------------------------|
D |--------------------------------------------|
A |--5-5-3-3-5-5-3-3-5-5-3-3-------------1-1-3-|
D |------------------------------0-0-3-3-------|

G |---------------------|-------------------------------------|
D |---------------------|-------------------------------------|
A |---------------------|--------------------1-1-1-1--3-3-3-3-|
D |--0-------0------0~~~|--3-3-3-3-3-3-3-3--------------------|


Chorus  X3

G |------------------------------------|-----------------------------------|
D |------------------------------------|-----------------------------------|
A |--------------------1---1-1-1-1-1-1-|-------------------3-3-3-3-3--1--1-|
D |--0---0-0-0-0-0-0-------------------|-3---3-3-3-3-3-3-------------------|

G |------------------------------------|------------------------------------|
D |------------------------------------|------------------------------------|
A |--------------------1---1-1-1-1-1-1-|--------------------3-3-3-3-3-3-3-3-|
D |--0---0-0-0-0-0-0-------------------|-3--3-3-3-3-3-3---------------------|


Outro

G |----------------------------------|------------------------------------|  
D |----------------------------------|------------------------------------|
A |----------------------------------|----------------------------------^-|
D |--0-0-0-2-2-2-3-3-3-5-5-5-8-8-7-7-|--0-0-0-2-2-2-3-3-3-5-5-5-8-8-7-7-0-|


Thanks for playing bass, enjoy this song

--Jormungand
Comments