Project 68 - Six Sirens Chords & Tabs

 

Six Sirens Chords & Tabs

Project 68 Chords & Tabs

Version: 1 Type: Tab 0 ratings
1 star 2 stars 3 stars 4 stars 5 stars
comments

Six Sirens Tab

Project 86 - Six Sirens
Tabbed by Justin (aka 2200)

This song should be 100% right.
Project 86 uses the same patterns in 
most of their songs, and they are 
fairly easy.  Drop D tuning

Drums Intro
Guitar Intro:

e--------------------------------
B--------------------------------
G--------7-----------------------
D--3--0--x--0--3--0--3/6--6--0---
A--3--0--5--0--3--0--3/6--6--0---
D--3--0-----0--3--0--3/6--6--0--- Play 4x

Verse:

e--------------------------------
B--------------------------------
G--------7-----------------------
D--3--0--x--0--3--0--3/6--6--0---
A--3--0--5--0--3--0--3/6--6--0---
D--3--0-----0--3--0--3/6--6--0--- Play 4x

                                                                 Let Ring
e------------------------------------------------                ---------
B------------------------------------------------                ---------
G----------------7-7-7-7-------------------------                ---------
D--3-0-3-0--0-0--x-x-x-x--3-0-3-0--0-0--5-5-5-5--                --0------
A--3-0-3-0--0-0--5-5-5-5--3-0-3-0--0-0--5-5-5-5--                --0------
D--3-0-3-0--0-0-----------3-0-3-0--0-0--5-5-5-5--  play 2x       --0------


Bridge:
[ Tab from: http://www.guitartabs.cc/tabs/p/project_68/six_sirens_tab.html ]
e--------------------------------------------------------------------------
B---------11-11-11---------11-11-11---------11-11-11---------11-11-11-11---
G---------x--x--x----------x--x--x----------x--x--x----------x--x--x--x----
D--0-0-0--8--8--8---0-0-0--8--8--8---0-0-0--8--8--8---0-0-0--8--8--8--8----
A--0-0-0------------0-0-0------------0-0-0------------0-0-0----------------
D--0-0-0------------0-0-0------------0-0-0------------0-0-0---------------- play 4x

e------------------------------
B------------------------------
G------------------------------
D------------------------------
A----------5---------------3---
D--0-0--0-----0--0-3-0-3-5----- play 8x

e--------------------------------------------------------------------------
B---------11-11-11---------11-11-11---------11-11-11---------11-11-11-11---
G---------x--x--x----------x--x--x----------x--x--x----------x--x--x--x----
D--0-0-0--8--8--8---0-0-0--8--8--8---0-0-0--8--8--8---0-0-0--8--8--8--8----
A--0-0-0------------0-0-0------------0-0-0------------0-0-0----------------
D--0-0-0------------0-0-0------------0-0-0------------0-0-0---------------- play 4x

Ending:

e------              -----              ------------------------
B--11--              --x--              ------------------------
G--x---              --x--              ------------------------
D--8---              --x--              --0-0--0---0-0-0--0--0--
A------              --x--              --0-0--0---0-0-0--0--0--
D------ play 9x      ----- play 7x      --0-0--0---0-0-0--0--0--  repeat and fade


Comments