Prodigys Of Peace - Morbid Souls Chords & Tabs

 

Morbid Souls Chords & Tabs

Prodigys Of Peace Chords & Tabs

Version: 1 Type: Tab 0 ratings
1 star 2 stars 3 stars 4 stars 5 stars
comments

Morbid Souls Tab

E-------------------------------------------------------------------------------------------------------------------------------
B-------------------------------------------------------------------------------------------------------------------------------
G-------------------------15------14-------15------16-------15-------14-------15—16—15—14—16—15—14-----
D---13—13—13—13------13------13-------13------13-------13-------13----------------------------------------------
A-------------------------------------------------------------------------------------------------------------------------------
E-------------------------------------------------------------------------------------------------------------------------------

G-------------------------------------------------------------------------------------------------------------------------------
D—15—14—13—15—14—13---------------------------------------------------9------10------9------10------9------
A-----------------------------------------15—14—13—15—14—13/7—7—7-----7--------7------7-------7-------7-
E-------------------------------------------------------------------------------------------------------------------------------

G-------------------------------------------------------------------------------------------------------------------------------
D—8---------9-------10--------9----------8---------9-----------10-------/19--------------------21^-------21^-----21^
A-------7-7-----7-7-------7-7-------7-7-------7-7-------7-7----------7-7/19---19---19---19--------19-------19------
E-------------------------------------------------------------------------------------------------------------------------------

G-------------------------------------------------------------------------------------------------------------------------------
D—21^---20---19---21^---20---19----------------------------------------------------------------------------------------
A------------------------------------------21^----20---19---21^---20---19------------------------------------------------
E-------------------------------------------------------------------------------------------------------------------------------


G-------------------------------------------------------------------------------------------------------------------------------
D-----------9-------8------9-------8------9------8---------5-5-5-4-5-5-5-5\-----------------21^-------21^--------21^-
A---19/7------7-------7-------7------7------7------7/3---3-3-3-3-2-2-2-2\-19---19---19--------19---------19--------
E-------------------------------------------------------------------------------------------------------------------------------

[ Tab from: http://www.guitartabs.cc/tabs/p/prodigys_of_peace/morbid_souls_tab.html ]
G-------------------------------------------------------------------------------------------------------------------------------
D-------21^---20---19---21^---20---19-----------------------------------------------5------5---5---5------5---5-------
A---19----------------------------------------21^---19---21^---20---19---21^--\3------3-------3------2---2---2----2-
E-------------------------------------------------------------------------------------------------------------------------------

G-------------------------------------------------------------------------------------------------------------------------------
D---5------5-------5------5-------5-------4------4---/21^------------------------------------------------------------------
A-------2------2-------3------3-------2-------2------------------------------------------------------------------------------
E-------------------------------------------------------------------------------------------------------------------------------

G-------------------------------------------------------------------------------------------------------------------------------
D-------------------------------------------------------------------------------------------------------------------------------
APM---22----2----2----2----2----2----2----2----2----2----2----2----2----2---------------------------------------------
EPM---22----2----2----2----2----2----2----2----2----2----2----2----2----2—REMOVE PALM LET RING WHILE PLAYING NEXT PART.

G-------------------------------------------------------------------------------------------------------------------------------
D---21^------21^-----21^-------21^---20---19---21^---20---19---------------------------------------------------------
A---------19------19--------19----------------------------------------21^---20---19---21^---20---19--\\2-2-2-2-2-2
E-------------------------------------------------------------------------------------------------------------------------------

G-------------------------------------------------------------------------------------------------------------------------------
D-------------------------------------------------------------------------------------------------------------------------------
A-------------------------------------------------------------------------------------------------------------------------------
E------2------2--------2---------LET RING OUT AND FADE----------------------------------------------------------

This is an original song from my local band you can change the speed its played at it sound good at a moderate or fast tempo. 
We have been in a battle of the bands did pretty we are working on putting together a few more songs as soon as we get some lyrics 
we will have this one completed any suggestions to make this song better please email me or if you have works you like email me the 
names my name is matt. My email is redhotchilipepper_3@hotmail.com
Comments