Prodigy - Breathe Chords & Tabs

 

Breathe Chords & Tabs

Prodigy Chords & Tabs

Version: 5 Type: Tab 0 ratings
1 star 2 stars 3 stars 4 stars 5 stars
comments

Breathe Tab

   
Intro (clean):

E ----------------------------------
B ----------------------------------
G ----------------------------------
D 1-1-1-1-4-1-4-3-1-3-0-0-0-0-0-0-0-
A ----------------------------------
E ----------------------------------

Distortion chords when he sings "Come play my game"
[ Tab from: http://www.guitartabs.cc/tabs/p/prodigy/breathe_tab_ver_5.html ]
E --------------
B --------------
G 3---2---------
D 1---0---6----2
A --------4----0
E --------------

There's also a little part that appears sometimes in the background -
it sounds kind of like the intro.

E ---------------------
B ---------------------
G ---------------------
D 4-4-4-4-4-3-3-1-1-0-0
A 0-0-0-0-0-0-0-0-0-0-0
E ---------------------

 Feel free to email me at ajain@suffolk.lib.ny.us if you see any
mistakes or if you just like the tabs.
Comments