Prodigy - Always Outnumbered Never Outgunned Chords & Tabs

 

Always Outnumbered Never Outgunned Chords & Tabs

Prodigy Chords & Tabs

Version: 1 Type: Tab 0 ratings
1 star 2 stars 3 stars 4 stars 5 stars
comments

Always Outnumbered Never Outgunned Tab

   
ARTIST: THE PRODIGY
ALBUM: ALWAYS OUTNUMBERED, NEVER OUTGUNNED (2004)

TABBED BY: THE TABBER FORMERLY KNOWN AS ''BOGBRUSH'' AND ''EAR'', BUT NOW JUST PLAIN UNREGISTERED.

-----------------------------------------------------------------------------

TRACKS:

1- SPITFIRE
2- GIRLS
3- MEMPHIS BELLS
4- GET UP GET OFF
5- HOTRIDE
6- WAKE UP CALL
7- ACTION RADAR
8- MEDUSAS PATH
9- PHOENIX
10- UNDER MY WHEELS
11- THE WAY IT IS
12- SHOOTDOWN

B'SIDES

13- MORE GIRLS (GIRLS)
14- WHO U FOOLIN (HOTRIDE)

SCRAPPED TRACKS:

15- NUCLEAR
16- TRIGGER
17- BABYS GOT A TEMPER

NEW LIVE 2004/2005 TRACKS-

18- DEAD KENNEDY BEATS

-----------------------------------------------------------------------------

1- SPITFIRE

Intro:
*keyboard*
E|-8-9-10-------8-9-10----|
B|------------------------|
G|--------11-11-----------|
D|------------------------|
A|------------------------|
D|------------------------|

*guitar*
E|---------------|
B|---------------|
G|---------------|
D|-2-2-2---etc.--|
A|-2-2-2---etc.--|
D|-0-0-0---etc.--|

*kind of voice*
E|-10----8---------------|
B|----10---8-11-10-------|
G|-----------------11----|
D|--------------------12-|
A|-----------------------|
D|-----------------------|

*weird sound*
E|-10/11-|
B|-------|
G|-------|
D|-------|
A|-------|
D|-------|

Verse:
Guitar plays only
E|---------|
B|---------|
G|---------|
D|-0-0-0---|
A|-0-0-0---|
D|-0-0-0---|

Weird sound
E|-10--11--13--14---14-13-11-14-13-11-(10------)-----------|
B|------------------------------------(---10---)-----------|
G|------------------------------------(------11)-----------|
D|---------------------------------------------------------|
A|---------------------------------------------------------|
D|---------------------------------------------------------|

-----------------------------------------------------------------------------

2- GIRLS

MAIN SYNTH

e|-20--18--16--18-16-18----16---20--18-16--18------16-|
B|----------------------16----------------------16----|
G|----------------------------------------------------|
D|----------------------------------------------------|
A|----------------------------------------------------|
E|----------------------------------------------------|

-----------------------------------------------------------------------------

3- MEMPHIS BELLS

EMPHIS BELLS

e|---------------------------------------------------------------------------|
B|---------------------------------------------------------------------------|
G|---------------------------------------------------------------------------|
D|---------------------------------------------------------------------------|
A|-7777-XXXX-7777-XXXX-7777-XXXX--44--55-------------------------------------|
E|-5555-XXXX-5555-XXXX-5555-XXXX--22--33-------------------------------------|

AND PLAY THAT THROUGH THE VERSE SORT OF THING THROUGH THE SONG

-----------------------------------------------------------------------------

4- GET UP GET OFF

INTRO

e|--------------------------------------------------|
B|--------------------------------------------------|
G|--------------------------------------------------|
D|--------------------------------------------------|
A|10-9-10XX9-8--------------------------------------|
E|-8-7-8-XX7-6--------------------------------------|

AFTER THE INTRO, BUT BEFORE THE VERSE, PLAY THI

E|---------5-3-5-3-2--6---6-|------8--8--8-6-5--6--5--5-|
B|------7-------------------|---------------------------|
G|--------------------------|---------------------------|
D|--------------------------|---------------------------|
A|--------------------------|---------------------------|
E|--------------------------|---------------------------|

THIS IS THE BACKGROUND BASS

G|-------------------|---------------------|-----------|
D|-------------------|---------------------|-----------|
A|------2------------|------2--------2-----|-------2---|
E|-------------------|-------------------4-|----4------|

CONTINUED

G|-------------------|-------------------|-------------------|---------|
D|-------------------|-------------------|-------------------|---------|
A|------2------------|------2------------|------2------------|------2--|
E|-------------------|-------------------|-------------------|---------|

CONTINUED

G|--------------------|
D|--------------------|
A|------2--------2----|
E|--------------------|

PLAY THAT A FEW TIMES, THEN GO INTO THE VERSE

VERSE

E|---------------------------|
B|---------------------------|
G|---------------------------|
D|-3-4-33-4-3-4-33-4-etc.----|
A|-1-2-11-2-1-2-11-2-etc.----|
E|---------------------------|

THE BASS FOR THE VERSE IS

G|---------------------|----------------------|
D|---------------------|----------------------|
A|------4---------4----|------4---------4-----|
E|------------3--------|-----------3--------3-|

CONTINUED

G|------------------|
D|------------------|
A|-------4----------|
E|----3-------------|

CHORUS

E|------------------------------|
B|------------------------------|
G|------------------------------|
D|-4---44---4---44-----etc.-----|
A|-6-4-66-4-6-4-66-4---etc.-----|
E|---6----6---6----6---etc.-----|

-----------------------------------------------------------------------------

5- HOTRIDE

OTRIDE

"YOU HEAR ME''

e|-------7---0-----------------|
B|---5-------------------------|
G|-----------------------------|
D|-----------------------------|
A|-----------------------------|
E|-----------------------------|

MAIN PART THATS USED IN THE SONG

e|------------------------------------0------|
B|---------------------0--------3------------|
G|--------0---2----2-------------------------|
D|-------------------------------------------|
A|-------------------------------------------|
E|-0-----------------------------------------|

" HOTRIDE IN MY AIR BALLOON''

e|--------------------|
B|--------------------|
G|--------------------| AND REPEAT THROUGH THE CHORUS
D|-2--22--22----------|
A|-2--22--22----------|
E|-0--00--00----------|

"PUSH IT''

e|------------------------------------0------|
B|---------------------0--------3------------|
G|--------0---2----2-------------------------|
D|-------------------------------------------|
A|-------------------------------------------|
E|-0-----------------------------------------|

-----------------------------------------------------------------------------

6- WAKE UP CALL

NTRO AND MAIN PART OF THE SONG

E|-------------------------|---------------------------|
B|-------------------------|---------------------------|
G|-------------------------|---------------------------|
D|-------------------------|---------------------------|
A|------------0-1--------1-|-------------0-1---------1-|
E|------2--3--------2--3---|----3--2--3--------2-2-3---|

E|--------------------------|---------------------------|----------------|
B|--------------------------|---------------------------|----------------|
G|--------------------------|---------------------------|----------------|
D|--------------------------|-------------------------2-|-----2----------|
A|-------------0-1--------1-|-------------0-1-----------|--------------0-|
E|----3--2--3--------2--3---|----3--2--3--------2-2-3---|---2----2--3----|

SYNTH OCCASIONALLY PLAYED

e|-------------------------|-------------------|
B|---------17--------18----|-------------------|
G|-------------------------|------19--------20-|
D|-------------------------|-------------------|
A|-------------------------|-------------------|
E|-------------------------|-------------------|

-----------------------------------------------------------------------------

7- ACTION RADAR

PLAYED IN THE BACKGROUND

e|------------------------------------------------------|
B|-------------3----0-------------2-------3-----0-------|
G|----------------------------4-------------------------|
D|--5---------------------------------------------------|
A|-----------------------4---------------------------4--|
E|------------------------------------------------------|

AND CARRY ON PLAYING FROM THE BEGINNING

-----------------------------------------------------------------------------

8- MEDUSAS PATH

THIS IS THE LARGEST PART OF THE SONG WHICH IS PLAYED
THORUGH NEARLY ALL OF IT

E|--------------------------16-14-13----------------|
B|--------------------14-16----------16-14----------|
G|--15-16-15-13-15-16----------------------16-15-13-|
D|--------------------------------------------------|
A|--------------------------------------------------|
E|--------------------------------------------------|

-----------------------------------------------------------------------------

9- PHOENIX

THIS IS REPEATEDLY PLAYED

e|------------------------------------------------|
B|------------------------------------------------|
G|------------------------------------------------|
D|--------------4-3-4---------------3-4-----------|
A|-3---1--3--4----------3---1--3--4-----3---------|
E|------------------------------------------------|

-----------------------------------------------------------------------------

10- YOU'LL BE UNDER MY WHEELS

OLIN SORT-OF INTRO

e|-14------13--14--16----14--16----17----------|
B|-14------------------------------------19----|
G|-----------------16--------------------18----|
D|---------------------------------19----------|
A|---------------------------------------------|
E|---------------------------------------------|

THIS IS PLAYED HERE AND THERE
[ Tab from: http://www.guitartabs.cc/tabs/p/prodigy/always_outnumbered_never_outgunned_tab.html ]
e|----------------------7--6----------|
B|-4---4---4---4---4------------------|
G|------------------------------------|
D|------------------------------------|
A|------------------------------------|
E|------------------------------------|

REALLY FAST FLUTE-LIKE THING

e|-2-3-2--2-----------------2-3-2---2---------3--2---|
B|----------3--3--2--2-----------------3---2---------|
G|---------------------------------------------------|
D|-----------------------4---------------------------|
A|---------------------------------------------------|
E|---------------------------------------------------|

-----------------------------------------------------------------------------

11- THE WAY IT IS

ATERY SOUNDING THING

E|----------19--18--19--19--19--18--18--18--|-----------------------14-|
B|------------------------------------------|-------------16--17-------|
G|------------------------------------------|--------------------------|
D|------------------------------------------|--------------------------|
A|------------------------------------------|--------------------------|
E|------------------------------------------|--------------------------|

E|---12--11--12------19--18--19--19--19--18--18--18--|
B|---------------------------------------------------|
G|---------------------------------------------------|
D|---------------------------------------------------|
A|---------------------------------------------------|
E|---------------------------------------------------|


BASS AND LEAD

G||------------0-----------|--------------|
D||------------------4-----|--2-----------|
A||-----4--4---------------|-------4--4---|
E||------------------------|--------------|

-----------------------------------------------------------------------------

12- SHOOTDOWN

THIS IS THE INTRO

E|-----------------------|-----------------------|-------------------------|
B|-----------------------|-----------------------|-------------------------|
G|-----------------------|-----------------------|-------------------------|
D|-----------------------|-----------------------|-------------------------|
A|-----------------------|-----------------------|-------------------------|
E|------1-3-3--3--3------|------1-3-3--3--3------|------1-3-3--3--3--1-3-3-|

E|---------------------------|--------|
B|---------------------------|--------|
G|---------------------------|--------|
D|---------------------------|--------|     X2
A|---------------------1-----|--1--3--|
E|--3--3--1-3-3--3--3-----3--|--------|

MAIN GUITAR

e|-----------------------|-----------------------|--------------------|
B|-------4-4--4--4--4----|-------4-4--4--4--4----|--------------------|
G|-------3-3--3--3--3----|-------3-3--3--3--3----|-------6-6--6--6--6-|
D|-----------------------|-----------------------|-------6-6--6--6--6-|
A|-------6-6--6--6--6----|-------6-6--6--6--6----|-------4-4--4--4--4-|
E|-----------------------|-----------------------|--------------------|

e|---------------------|
B|---------------------|
G|-------5-5--5--5--5--|
D|-------5-5--5--5--5--|
A|-------3-3--3--3--3--|
E|---------------------|

" SHOOT EM DOWN, SHOOT EM DOWN, SHOOT EM DOWN
TO THE BANG, BANG, BANG''

e|----------0--0-----------------0--0-----|
B|----------------4--------------------4--|
G|----------------------------------------|
D|----------------------------------------|
A|----------------------------------------|
E|----------------------------------------|

e|----------------------|
B|--4--2--4----2--------|
G|------------------3---|
D|----------------------|
A|----------------------|
E|----------------------|

-----------------------------------------------------------------------------

13- MORE GIRLS
INTRO

e|777777777777777775555555555444444444----|
B|----------------------------------------|
G|----------------------------------------|
D|----------------------------------------|
A|----------------------------------------|
E|----------------------------------------|

MAIN SYNTH (GIRLS SYNTH BUT REWORKED)

e|-19--------------------------19-----------------------|
B|----------21---19----21--------------21---19----21----|
G|------------------------------------------------------|
D|------------------------------------------------------|
A|------------------------------------------------------|
E|------------------------------------------------------|

(CONTINUED)

e|--------------------------------------------------|
B|--19---21-----------------------------------------|
G|---------------20---------------------------------|
D|---------------------18---------------------------|
A|--------------------------------------------------|
E|--------------------------------------------------|

-----------------------------------------------------------------------------

14- WHO U FOOLIN


This is that synthsizer thing about forty-something seconds in,
and i have tabbed it for
guitar, because it's just as fun playin it on your 6-stringer!


e|-------------------------------|
B|-8---7/6--6/5--4/2--0----------|
G|-6---5/4--4/3--2/1--0----------|         And Repeat throughout
D|-------------------------------|               The Song
A|-------------------------------|
E|-------------------------------|

-----------------------------------------------------------------------------

15- NUCLEAR

HIS WAS A SCRAPPED TRACK, AS WELL AS TRIGGER AND BGAT,
WHICH WERE ON THE FOLLOW-UP TO " THE FAT OF THE LAND''.

VERSE

e|-------------------------------------------|
B|-------------------------------------------|
G|-------------------------------------------|
D|-------------------------------------------|    AND REPEAT AS
A|--8-8-888-888-7-7-5-8-8-888-888-77-5-------|  MANY TIMES AS YOU
E|--6-6-666-666-5-5-3-6-6-666-666-55-3-------|       NEED TO

PRE-CHORUS (IT'S LIKE A RODEO/COUNTRY GUITAR)

e|-------------22-----------|
B|-2-2-0-0-2-2----3---------|
G|--------------------------|
D|--------------------------|
A|--------------------------|
E|--------------------------|

-----------------------------------------------------------------------------

16- TRIGGER

INTRO/MAIN PART

e|-3----5----3---------4----|
B|----------------2---------|
G|--------------------------|
D|--------------------------|
A|--------------------------|
E|--------------------------|

CHORUS

e|-3----5----3---------4-----------------|
B|----------------2----------------------|
G|----------------------------6-0-0-0-5--|
D|----------------------------6-0-0-0-5--|
A|---------------------------------------|
E|---------------------------------------|

-----------------------------------------------------------------------------

17- BABYS GOT A TEMPER


ntro
e|-7-0-765-5-0-432--------------------------|
B|------------------------------------------|
G|------------------------------------------|
D|------------------------------------------|
A|------------------------------------------|
E|------------------------------------------|

Here is the bit that is played throughout the verses and before them.
e|-------------------------------------------|
B|-------------------------------------------|
G|-------------------------------------------|
D|-------------------------------------------|
A|-22-----2----------------------------------|
E|-00-----0----------------------------------|

Pre chorus

e|-------------------------------------------|
B|-------------------------------------------|
G|-------------------------------------------|
D|-------------------------------------------|
A|-------------------------------------------|
E|-12121212121212121212--1010-88-66-44-------|

              " We got rhyhyponol, just forget it all''

(second bit played as well as the above)

e|--7-----6-----5-----4------------------------|
B|--7-----6-----5-----4------------------------|
G|---------------------------------------------|
D|---------------------------------------------|
A|---------------------------------------------|
E|---------------------------------------------|

Chorus

e|--7-----6-----5-----4------------------------|
B|--7-----6-----5-----4------------------------|
G|---------------------------------------------|
D|---------------------------------------------|
A|---------------------------------------------|
E|---------------------------------------------|


solo

e|-------------------------------------------|
B|-------------------------------------------|
G|-------------------------------------------|
D|-------------------------------------------|
A|-------------------------------------------|
E|-12121212121212121212--1010-88-66-44-------|

After that play the chorus a few times and the track just fades away.

-----------------------------------------------------------------------------

18- DEAD KENNEDY BEATS

HIS IS A LIVE TRACK BEING PLAYED ON THE 2004-2005 TOUR

IT'S VERY SIMPLE

e|------------------------------------------------------|
B|------------------------------------------------------|
G|------------------------------------------------------|
D|------------------------------------------------------|
A|-0-----0--0-----1-----1--1-----0-----0--0-------------|
E|-0-----0--0-----1-----1--1-----0-----0--0-------------|

e|-----------------|
B|-----------------|
G|-----------------| AND KEEP REPEATING
A|-1-----1--1------|
E|-1-----1--1------|

-----------------------------------------------------------------------------

THANKS FOR READING THIS TAB, A FEW HAVE BEEN TAKEN FROM NUMEROUS SOURCES, BUT
MOST I TABBED AS " BOGBRUSH'' OR " EAR'', SO I ROUNDED THEM UP WITH SOME OTHER
STUFF. PLEASE RATE THIS, EITHER IF YOU LOVE IT, HATE IT, ITS NICE TO KNOW WHAT
PEOPLE THINK.
Comments