Proclaimers - Im Gonna Be Chords & Tabs

 

Im Gonna Be Chords & Tabs

Proclaimers Chords & Tabs

Version: 1 Type: Tab

Im Gonna Be Tab

SONG: I'm Gonna Be (500 Miles)
ARTIST: The Proclaimers
TABBER: Dooda
TUNING: Standard (EADBGe)


RIFF 1(Verses): This riff is palm muted and is played in every verse
[ Tab from: http://www.guitartabs.cc/tabs/p/proclaimers/im_gonna_be_tab.html ]
e:----------------------------------|
B:----------------------------------|
G:-------------------22-4444--------|
D:2--2--2--222222-22-22-4444--------|
A:2--2--2--222222-22-00-2222--------|
E:0--0--0--000000-00----------------|


RIFF 2 (Chorus and LALALALA's):This riff is the same but it isn't palm muted

e:----------------------------------|
B:----------------------------------|
G:-------------------22-4444--------|
D:2--2--2--222222-22-22-2222--------|
A:2--2--2--222222-22-00-2222--------|
E:0--0--0--000000-00----------------|