Probot - Shake Your Blood Chords & Tabs

 

Shake Your Blood Chords & Tabs

Probot Chords & Tabs

Version: 2 Type: Bass Tab

Shake Your Blood Bass Tab

*drop D Tuning*


intro
-------------------------------------|
-------------------------------------|
-6---6--6---6----6--6----------------|
--8-8--8-8---8-8---8-8---------------|

---------------------------------|
---------------------------------|
-----------------6---------------|
-10-10-10-10--7h9----------------|

--------------------------------------|
--------------------------------------|
-6-6-6----8-8-8------------------6----|
------------------10-10-10-10-7h9-----|
rock out...
[ Tab from: http://www.guitartabs.cc/tabs/p/probot/shake_your_blood_btab_ver_2.html ]
---------------------------------------------|
---------------------------------------------|
-3-3-3-33---8-8-8-88--6--6--6--6--6----------|
-----------------------8--8--8--8--8---------|

VERY rough transcription of the bass solo
----------------------------------------------------------|
-1~/10-10-10-10-10---10-9-8-1010-9-8-7-10-9-8-------------|
----------------------------------------------10-9-5-0----|
----------------------------------------------------------|

----------------------------------------------------|
----------------------------------------------------|
----------------6-------------9-7-------------------|
-10-10-10-10-7h9--10-10-10-10----8------------------|

you must play every note as hard as you can for it to be played correctly.