Probot - Centuries Of Sin Chords & Tabs

 

Centuries Of Sin Chords & Tabs

Probot Chords & Tabs

Version: 2 Type: Tab 0 ratings
1 star 2 stars 3 stars 4 stars 5 stars
comments

Centuries Of Sin Tab

Tabbed by Joe Passby
INTRO
E||---------------------------|--------------------------|
B||---------------------------|--------------------------|
G||*--------------------------|--------------------------|
D||*--------------------------|--------------------------|
A||---------------2--1--3--1--|--------------2--1--4--1--|
E||---0--0--0--0--------------|--0--0--0--0--------------|

                                                    
--------------------------|---------------------------|
--------------------------|---------------------------|
--------------------------|--------------------------*|
--------------------------|--------------------------*|
--------------2--1--3--1--|--------------2--1--0--1---|
--0--0--0--0--------------|--0--0--0--0---------------|

Then some weird effect comes in with synth...


VESRE

                                                                         
|-------------------------|-------------------------|
|-------------------------|-------------------------|
|-------------------------|-------------------------|
|-------------------------|-------------------------|
|--------------------3----|--------------------2----|
|--0--0--0--0--0--0--1----|--0--0--0--0--0--0--0----|

[ Tab from: http://www.guitartabs.cc/tabs/p/probot/centuries_of_sin_tab_ver_2.html ]
                                                      
-------------------------|--------------------------||
-------------------------|--------------------------||
-------------------------|--------------------------||
-------------------------|--------------------------||
--------------------3----|--------------------3--2--||
--0--0--0--0--0--0--1----|--0--0--0--0--0--0--1--0--||


CHORUS
   Falling    Crawling    The undeniable
|-----------------------|----------------------|
|-----------------------|----------------------|
|*----------------------|----------------------|
|*----------------------|----------------------|
|---1/-3------1/-3------|--1/-3------1/-3------|
|-----------------------|----------------------|


                                                      
--------------------------|---------------------------||
--------------------------|---------------------------||
--------------------------|--------------------------*||
--------------------------|--------------------------*||
--3--3--3--3--3--3--3--3--|--3--3--3--3--3----3-3-3---||
--1--1--1--1--1--1--1--1--|--1--1--1--1--1----1-1-1---||

BRIDGE
--------------------------|
--------------------------|
--------------------------|
--------------------------|
---1/-3----0--1/-3----0---|
-----------0----------0---| 

OUTRO RIFF
---------------------------|----------------------------
---------------------------|----------------------------
*--------------------------|---------------------------*
*--------------------------|---------------------------*
------1--3--1-----1--0--1--|-----1--3--1-----1--0--1-1--
---0-----------0-----------|--0-----------0-------------

SONG ORDERING

INTRO RIFF (X2)
WEIRD VOICE THING
VERSE RIFF (X4)
CHORUS RIFF (X4)
INTRO RIFF
VERSE RIFF (X4)
CHORUS RIFF (X4)
INTRO RIFF
BRIDGE RIFF (X34)(!!)
CHORUS RIFF (X4)
WEIRD VOICE THING
OUTRO RIFF (X4)
Comments