Pro-pain - Can You Feel It Chords & Tabs

 

Can You Feel It Chords & Tabs

Pro-pain Chords & Tabs

Version: 1 Type: Tab 0 ratings
1 star 2 stars 3 stars 4 stars 5 stars
comments

Can You Feel It Tab

Can you feel it by Pro-Pain

This is my first tap, but it is right!
So have much fun with my composition!

special notations:
h: hammer on
p: pull off


Intro: Play this with a Wah Wah (3x)

|----------------------------|
|----------------------------|
|----------------------------|
|-4--------5--------3--------|   
|-2--------3--------1--------|
|----------------------------|

1.Verse: play with a heavier distortion

|-------------------------------------------|  when you have play |--------|
|-------------------------------------------|  this 3x, play this |--------|
|-------------------------------------------|  twice!this also    |--------|
|--------------------4---hp-----------------|  the end of the     |--------|
|2-3--2-33-2-33--2-3-2---325232523252---2-3-|  first Verse!       |-2-33---|
|2-3--2-33-2-33--2-3--------------------2-3-|                     |-2-33---|


1.Chorus: play this 2x

|--------------------------------------------|
|--------------------------------------------|
|--------------------------------------------|
|--------------------------------------------|
|-3----43--43--------43--43--43-----3------2-|
|-1----21--21--------21--21--21-----1------2-|


[ Tab from: http://www.guitartabs.cc/tabs/p/pro_pain/can_you_feel_it_tab.html ]
2.Verse: play this with muting! 2x

|------------------------------------------------|
|------------------------------------------------|
|------------------------------------------------|
|------------------------------------------------|
|-222222342322222222342222223423222222223--------|
|-222222122122222222122222221221222222221--------|

than play Verse1,Chorus1,Verse2 again!

1.Interlude:2x

|------------------------------------|
|-3--------2--------0----------------|
|------------------------------------|
|------------------------------------|
|------------------------------------|
|------------------------------------|

2.Interlude:

|--------------------------------------------------------------------------|
|-333333333333333322222222000000003333333333333333222222220000000033332200-|
|--------------------------------------------------------------------------|
|--------------------------------------------------------------------------|
|--------------------------------------------------------------------------|
|--------------------------------------------------------------------------|


now play :

1.Verse 8x



that`s it! play and enjoy this song!!!!!!!
notationed by Stefan Holzinger
Comments