Pritam - Te Amo-dum Maro Dum Chords & Tabs

 

Te Amo-dum Maro Dum Chords & Tabs

Pritam Chords & Tabs

Version: 1 Type: Tab 0 ratings
1 star 2 stars 3 stars 4 stars 5 stars
comments

Te Amo-dum Maro Dum Tab

   
[Intro]
 
 e|----10h12--12--12-------10-10---10s12s--|
 B|----12------------------10---10---------|
 G|---0-0------0---0--------0-0----0-s0s0--|
 D|--------------------0-------------------|
 A|----------------------------------------|
 E|----------------------------------------|


 e|-7-7---7-7----------5-5---5---5---------7----|
 B|-------7---7-----7--------5---5---5---5------|
 G|-------0-0---0-0----------0-0---0---0------0-|
 D|---------------------------------------------|
 A|---------------------------------------------|
 E|---------------------------------------------|


 e|----10h12--12--12-------10-10---10s12s-|
 B|----12------------------10---10--------|
 G|---0-0------0---0--------0-0----0-s0s0-|
 D|--------------------0------------------|
 A|---------------------------------------|
 E|---------------------------------------|

 e|-7-7---7-7----5-5---5---5-----8p7p5----7-|
 B|-7---7-----7--5---5---5---5--------------|
 G|-0-0---0-0----0-0---0---0-----0--------0-|
 D|-----------------------------------------|
 A|-----------------------------------------|
 E|-------- --------------------------------|

 G Cadd9 D Eb C Dsus2

 E|---3---3-s-5-5-----5---7---7-7-3---3-5--------------------------------------|
 B|-----3---s-----7---------8-8-----3-----7------------------------------------|
 G|-----0-0-s-------7-------9-------5-5-----7----------------------------------|
 D|---0-------7-7-----7---9-------5-----7--------------------------------------|
 A|----------------------------------------------------------------------------|
 E|----------------------------------------------------------------------------|



at end play Dsus2 or D baree

THEN 
DO PLUCKING ON 

G Cadd9 D Eb C Dsus2  [rANDOMLY pLUCKING iS tHERE....]


It was just an intro part....

in verse play same chord but this time with intro....

Main Song
------------B------------
Kisi Ko Sapna Lage Tu
------------G#m----
Kisi Ko Behti Hawa
--------------D#m--------
Kisi Ki baas Baaton mein
------E-----------------F#----
Kare Pal Mein yahan wahan
[ Tab from: http://www.guitartabs.cc/tabs/p/pritam/te_amo_dum_maro_dum_tab.html ]
--------------B-----------
Kisi ki sau jhooth sun le
-------------G#m-------
Kisi ka Sach bhi Gunah
-------------D#m--------
Kisi ki bas yaadon mein 
--------E--------------F#--- 
Karein Hulchal sara jahan

F#--B---F#------B--
Te Amo Me thi Amo
---D#m--B--D#m-----B--
Tu Chau hai tu Dhoop hai
F#---B---F#------B--
Te Amo Me thi Amo
--D#m--B----D#m--B--
Tere hazaron roop hai

-----C#m--------
Koi samjha nahi 
E-------------------F#
Jo Bhi bas khoob hai

B-----------------------
Fallin so crazy in love

F#---B---F#-----B--
Te Amo Me thi Amo
----D#m-B--D#m-----B--
Tu Chau hai tu Dhoop hai
F#---B---F#-----B--
Te Amo Me thi Amo
--D#m--B----D#m--B-
Tere hazaron roop hai



Stanza 1:

B------------B------------------
Kabhi Lage Raaton mein main 
D#m----------D#m---------
Khawabon se baatein karun
C#m--------C#m---------------------E----------B
Subha unhi khwabon ko Mein kabu Karun

B-----------B---------------
Kabhi lage taron se bhi
D#m---------D#m--
Uchi Undane Bharu
C#m--------C#m-------------------E---------B
Kabhi LAge Badalon se mein jebe bharu


F#--B---F#------B--
Te Amo Me thi Amo
-D#m--B--D#m--B-
Taare gino tere liye
F#---B---F#-----B--
Te Amo Me thi Amo
-D#m--B-----D#m-B--
Saare Chunu Tere Liye

---------C#m-------
Khawaab sare bunu 
E--------------F#
Tere hi tere liya

B-----------------------
Fallin so crazy in love

F#---B---F#-----B--
Te Amo Me thi Amo
-D#m--B---D#m--B-
Taare gino tere liye
F#--B---F#------B--
Te Amo Me thi Amo
-D#m--B-----D#m--B-
Saare Chunu Tere Liye



Stanza 2:

Hmm hmm m

O o hh ohoho 
B-----------B--------
Kabhi lage Mili nahi 
D#m---------D#m---------------
Tumse mein khawabon mein bhi
C#m--------C#m--------------E----------B
Kabhi Lage kahin to hai rista koi 

B-----------B---------------
Kabhi lage Chuoo tumhein
D#m---D#m-------------------
Yun hi Khayalon mein hi
C#m--------C#m------------E----------B
Kabhi Lage Nahi nahi Chori Nahin


F#--B---F#------B--
Te Amo Me thi Amo
-D#m---B----D#m---B--
Tu Pass hai per door hai
F#--B---F#------B--
Te Amo Me thi Amo
-D#m--B-----D#m--B-
Jata nahi yeh noor hai

-----C#m--------
teri chori bhi hai
E--------------------F#
manzoor manzoor hai

B-----------------------
Fallin so crazy in love

F#--B---F#------B--
Te Amo Me thi Amo
-D#m---B---D#m----B--
Tu Pass hai per door hai
F#--B---F#------B--
Te Amo Me thi Amo
-D#m--B-----D#m--B-
Jata nahi yeh noor hai
Comments